Song name
# A B C D E F G H I J K L M N O P Q R S T U V W X Y Z

Biffy Clyro - Kids From Kibble And The Fist Of Light tab

Song: The Kids from Kibble and the Fist of Light
Band: Biffy Clyro
Album: Infinity Land

Tuning: Drop D

Iíve put this symbol (#) on sections where Iíve just written out the chords. Play along
the song to get the rhythm.

* = Palm Mute
b = bend
r = release
h = hammer-on
p = pull-off
/ = slide up
\ = slide down


INTRO
E|-------------------------------------|
B|-------------------------------------|
G|-------------------------------------|
D|--0-0-0-0-0---0-0-0-0-0---0-0-0-0-0--|
A|--0-0-0-0-0---0-0-0-0-0---0-0-0-0-0--|
D|--0-0-0-0-0---0-0-0-0-0---0-0-0-0-0--|
                                       (with wah)
E|--------------------------------------4-5-7-5--|
B|-----------------------------------------------|
G|-----------------------------------------------|
D|--0-0-0-0-0---0-0-0-0-0---0-0-0-0-0------------|
A|--0-0-0-0-0---0-0-0-0-0---0-0-0-0-0------------|
D|--0-0-0-0-0---0-0-0-0-0---0-0-0-0-0------------|

E|-----------------------------------------------------------------------|
B|-----------------------------------------------------------------------|
G|---------------------------------------------8---------9----------10---|
D|--0-0-0-0-0---0-0-0-0-0---0-0-0-0-0----8-7-------9-8-------10-9--------|
A|--0-0-0-0-0---0-0-0-0-0---0-0-0-0-0--------6---------7----------8------|
D|--0-0-0-0-0---0-0-0-0-0---0-0-0-0-0------------------------------------|

E|--12~----12/14\12----|
B|--10~----------------|
G|--11~----------------|
D|--0~-----------------|
A|---------------------|
D|---------------------|


PART 1 (#)
E|----------|
B|----------|
G|--8----7--|
D|--7----0--|
A|--7----0--|
D|--7----0--|


PART 2 (#)
E|---------------------------|
B|---------------------------|
G|--4--6--7--4--6--7--4--11--|
D|--2--4--0--2--4--0--2--9---|
A|--2--4--0--2--4--0--2--9---|
D|--2--4--0--2--4--0--2--9---|

PART 3
E|---------------------------------|
B|---------------------------------|
G|--7----14-14--6~-----------------|
D|--7----14-14--7~----4~----5~-----|
A|--5----12-12--4~----4~----5~-----|
D|--------------------4~----5~-----|

E|-------------------------------------------|
B|-------------------------------------------|
G|--7----14-14--6~---------------------------|
D|--7----14-14--7~----4~----5~---5-0-2-2-2---| Repeat all this
A|--5----12-12--4~----4~----5~---5-0-2-2-2---|
D|--------------------4~----5~---5-0-2-2-2---|

E|----------|
B|----------|
G|--9/11\9--|
D|--X-------|
A|--7/9-\7--|
D|----------|

(Repeat PART 1)

(Repeat PART 2)

PART 3 (#)
E|----------------------------------      -------------|
B|----------------------------------      -------------|
G|--------6----------------6-------- then -------------|
D|--0--7--7--4--5----0--7--7--4--5-- this --0-2-2-2-0--| Repeat all this
A|--0--7--4--4--5----0--7--4--4--5--      --0-2-2-2-0--|
D|--0--7-----4--5----0--7-----4--5--      --0-2-2-2-0--|


PART 4
E|--------------------------------------|
B|------3-----3---------7p0-------------|
G|------2-----2---------------7---------|
D|--------------------------------------|
A|--0-0---0-0---0-7-7-7-----7-----7/----|
D|--0-0---0-0---0-----------------------|
    * *   * *   * * * *     *     *

E|-----------------------------------------------------|
B|--------14p0---------------------14p0----------------|
G|----------------14-----------------------14----------|
D|-----------------------------------------------------|
A|--14-14------14------14-14-14-14------14------14\----|
D|-----------------------------------------------------| Repeat
    *  *       *       *  *  *  *       *       *

E|----------------------0~------|
B|------3-----3---------7~------|
G|------2-----2---------7~------|
D|------------------------------|
A|--0-0---0-0---0-7-7-7-7~/-----|
D|--0-0---0-0---0---------------|
    * *   * *   * * * *


INSTRUMENTAL
E|-------------------------------------------------------------|
B|-------14-----14-------------14------14---------15-----15----|
G|-------14-----14-------------14------14---------14-----14----|
D|---------------------------------------------0-------0----0--|
A|--14-------14----14--12---12------12----12-------------------|
D|-------------------------------------------------------------|

E|------------------------------------------|
B|----------12------12-------------------7--|
G|----------12------12-------------------7--|
D|------------------------------------------|
A|--10---10------10----10----------7---7/---|
D|------------------------0~----------------|  Repeat all this


PART 5  (this partís played on bass, but if youíre playing along to the track
         just play these notes)
E|--------------------------|
B|--------------------------|
G|--------------------------|
D|--------------------------|
A|--------------------------|
D|--9~----7~----0~----5~----| Repeat once before guitar comes in

E|----------------------------------|
B|--7---------------7---------------|
G|----7-----9~--------7-----7~------|
D|------9---7~----------7---5~------|
A|----------7~--------------5~------|
D|----------7~--------------5~------| Repeat for ages

When the ďDo you believe that I care?Ē bit comes in, this continues whilst a second
plays this over the top.

E|-------------------------------------------------------------------|
B|-------------------------------------------------------------------|
G|--7-7-7-7-7-7-7-6-6-6-6-6-6-6-6-6-7-7-7-7-7-9-9-7-7-7-7-7-7-7-7-7--|
D|--X-X-X-X-X-X-X-X-X-X-X-X-X-X-X-X-X-X-X-X-X-X-X-X-X-X-X-X-X-X-X-X--|
A|--5-5-5-5-5-5-5-4-4-4-4-4-4-4-4-4-5-5-5-5-5-7-7-5-5-5-5-5-5-5-5-5--|
D|-------------------------------------------------------------------|

E|-------------------------------------------------------------------|
B|-------------------------------------------------------------------|
G|--7-7-7-7-7-7-7-6-6-6-6-6-6-6-6-6-7-7-7-7-7-9-9-7-7-7-7-7-7-7-7-9--|
D|--X-X-X-X-X-X-X-X-X-X-X-X-X-X-X-X-X-X-X-X-X-X-X-X-X-X-X-X-X-X-X-X--|
A|--5-5-5-5-5-5-5-4-4-4-4-4-4-4-4-4-5-5-5-5-5-7-7-5-5-5-5-5-5-5-5-7--|
D|-------------------------------------------------------------------|

E|------------------------------------------|
B|------------------------------------------|
G|--11-11-11-11-11-11-11-9-9-9-9-9-9-9-9-9--|
D|--X--X--X--X--X--X--X--X-X-X-X-X-X-X-X-X--|
A|--9--9--9--9--9--9--9--7-7-7-7-7-7-7-7-7--|
D|------------------------------------------|

E|-----------------------------------|
B|-----------------------------------|
G|--7-7-7-7-7-9-9-7-7-7-7-7-7-7-7-9--|
D|--X-X-X-X-X-X-X-X-X-X-X-X-X-X-X-X--|
A|--5-5-5-5-5-7-7-5-5-5-5-5-5-5-5-7--|
D|-----------------------------------|

E|------------------------------------------------------------------|
B|------------------------------------------------------------------|
G|--11-11-11-11-11-11-11-6-6-6-6-6-6-6-6-6-14-14-14-14-14-14-14-14--|
D|--X--X--X--X--X--X--X--X-X-X-X-X-X-X-X-X-X--X--X--X--X--X--X--X---|
A|--9--9--9--9--9--9--9--4-4-4-4-4-4-4-4-4-12-12-12-12-12-12-12-12--|
D|------------------------------------------------------------------|

Then both guitars play

E|------------------------------------------|
B|------------------------------------------|
G|--14b15r14--14b15r14--14b15r14--14b15r14--|
D|--X---------X---------X---------X---------|
A|--12b13r12--12b13r12--12b13r12--12b13r12--|
D|------------------------------------------|


OUTRO
E|-------------------------------------------------|
B|-------------------------------------------------|
G|-------------------------------------------------|
D|--0-0-0-0-0---0-0-0-0-0---0-0-0-0-0---0-0-0-0-0--|
A|--0-0-0-0-0---0-0-0-0-0---0-0-0-0-0---0-0-0-0-0--|
D|--0-0-0-0-0---0-0-0-0-0---0-0-0-0-0---0-0-0-0-0--|x3

E|------------------------------------------|
B|------------------------------------------|
G|--------------------------6-------8~\-----|
D|--0-0-0-0-0---0-0-0-0-0---6---4---8~\-----|
A|--0-0-0-0-0---0-0-0-0-0---4---4---6~\-----|
D|--0-0-0-0-0---0-0-0-0-0-------4-----------|
Tap to rate this tab
 
# A B C D E F G H I J K L M N O P Q R S T U V W X Y Z