Song name
# A B C D E F G H I J K L M N O P Q R S T U V W X Y Z

Biffy Clyro - My Recovery Injection tab

Biffy Clyro
My Recovery Injection
Infinity Land [2004]

Drop-D Tuning [DADGBe]

Intro [this intro is only on the album version of the song]
Part One [with wah]

e|--x-x---x-x---x-x-x-x-x-x----|
B|--x-x---x-x---x-x-x-x-x-x----|
G|--x-x---x-x---x-x-x-x-x-x----|
D|--x-x---x-x---x-x-x-x-x-x----|
A|--x-x---x-x---x-x-x-x-x-x----|
D|--x-x---x-x---x-x-x-x-x-x----|


e|-------------------------------------------------------------------------|
B|-------------------------------------------------------------------------|
G|--12-12----12-12----12-12----12-12----12-12----12-12----12-12----12-12---|
D|---x--x-----x--x-----x--x-----x--x-----x--x-----x--x-----x--x-----x--x---|
A|--10-10----10-10----10-10----10-10----10-10----10-10----10-10----10-10---|
D|-------------------------------------------------------------------------|

e|-------------------------------------------------------------------------|
B|-------------------------------------------------------------------------|
G|--10-10----10-10----10-10----10-10----10-10----10-10----10/12--10--10/12-|
D|---x--x-----x--x-----x--x-----x--x-----x--x-----x--x-----x------x---x----|
A|---8--8-----8--8-----8--8-----8--8-----8--8-----8--8-----8/10---8---8/10-|
D|-------------------------------------------------------------------------|

Part 2 [No Wah] [Play this twice]

e|--10-------------------------10-----------------------------------|
B|------8--------------------------8--------------------------------|
G|---------10-------------------------10----------------------------|
D|-------------9^----5/7/3----------------9^----9-10-12-------------|
A|------------------------------------------------------------------|
D|------------------------------------------------------------------|

e|--14--13--14---14-14--13--14-----x------------|
B|--------------------------------x-------------|
G|-------------------------------x--------------|
D|------------------------------x---------------|
A|----------------------------------------------|
D|----------------------------------------------|


[this little riff is played 3 times]
e|-14--13--14---14-14--13--14---14-14-14-14-13--14----------|
B|-12--12--12---12-12--12--12---12-12-12-12-12--12----------|
G|----------------------------------------------------------|
D|----------------------------------------------------------|
A|----------------------------------------------------------|
D|----------------------------------------------------------|

[then]

e|-14--13--14-----------------------------------------------|
B|-12--12--12-----------------------------------------------|
G|-----------------14--14--14----12--12--12-----------------|
D|-----------------12--12--12----12--12--12-----------------|
A|----------------------------------------------------------|
D|----------------------------------------------------------|


[then this 3 times again]

e|-14--13--14---14-14--13--14---14-14-14-14-13--14----------|
B|-12--12--12---12-12--12--12---12-12-12-12-12--12----------|
G|----------------------------------------------------------|
D|----------------------------------------------------------|
A|----------------------------------------------------------|
D|----------------------------------------------------------|

[then]

e|-14--13--14------------------------------|
B|-12--12--12------8--8--8-----------------|
G|-----------------7--7--7-----------------|
D|----------------------------7--7--7------|
A|----------------------------7--7--7------|
D|-----------------------------------------|


[this is where the single version of the song begins]

e|--------------------------------------------------------|
B|--------------------------------------------------------|
G|--4p0-4p0----4p0-4p0----4p0-4p0-4p0-4p0----4p0-4p0-5----|
D|--------------------------------------------------------|
A|--------------------------------------------------------|
D|--------------------------------------------------------|


i've been waiting on the overdrive
e|-----------------------------------------------|
B|-----------------------------------------------|
G|----------------------------------4p0-4p0-5----|
D|-----------------------------------------------|
A|-----------------------------------------------|
D|-----------------------------------------------|

slick and polished on the inside
e|-----------------------------------------------|
B|-----------------------------------------------|
G|----------------------------------4p0-4p0-5----|
D|-----------------------------------------------|
A|-----------------------------------------------|
D|-----------------------------------------------|

it ruins feeding time
e|-----------------------------|
B|-----------------------------|
G|-----------------------7-----|
D|-----------------------8-----|
A|-----------------------6-----|
D|-----------------------------|

i'll recover in an empty room
e|-----------------------------------------------|
B|-----------------------------------------------|
G|----------------------------------4p0-4p0-5----|
D|-----------------------------------------------|
A|-----------------------------------------------|
D|-----------------------------------------------|

in remission from a real mood
e|-----------------------------------------------|
B|-----------------------------------------------|
G|----------------------------------4p0-4p0-5----|
D|-----------------------------------------------|
A|-----------------------------------------------|
D|-----------------------------------------------|

sit down, fuck up and wait your turn

why cant we hide         our secret lives?
e|-------------------------------------------|
B|-------------------------------------------|
G|-----------------------5--5--5--5--5--5----|
D|--1--1--1--1--1--1-----5--5--5--5--5--5----|
A|--1--1--1--1--1--1-----3--3--3--3--3--3----|
D|--1--1--1--1--1--1-------------------------|


e|-----------------------------------------------------------|
B|-----------------------------------------------------------|
G|--4p0-4p0----4p0-4p0----4p0-4p0-4p0-4p0-4p0-4p0-4p0-4p0-5--|
D|-----------------------------------------------------------|
A|-----------------------------------------------------------|
D|-----------------------------------------------------------|

e|-----------------------------------------------------|
B|-----------------------------------------------------|
G|--4p0-4p0----4p0-4p0----4p0-4p0-4p0-4p0-4p0-4p0-5/4--|
D|-----------------------------------------------------|
A|-----------------------------------------------------|
D|-----------------------------------------------------|

why cant we climb        this useless height?
e|-------------------------------------------|
B|-------------------------------------------|
G|-----------------------5--5--5--5--5--5----|
D|--1--1--1--1--1--1-----5--5--5--5--5--5----|
A|--1--1--1--1--1--1-----3--3--3--3--3--3----|
D|--1--1--1--1--1--1-------------------------|

you hide  your time so well
e|------------------------------------------|
B|------------------------------------------|
G|--5-4----5-4----5-4----5-4----7-----------|
D|--0-0----0-0----0-0----0-0----0-----------|
A|--5-5----5-5----5-5----5-5----7-----------|
D|------------------------------------------|

small scars of love and hate and happiness
e|----------------------------------------------|
B|----------------------------------------------|
G|--5-4----5-4----5-4----5-4----0---------------|
D|--0-0----0-0----0-0----0-0----5---------------|
A|--5-5----5-5----5-5----5-5----5---------------|
D|----------------------------------------------|

you hide  your scars so well
e|---------------------------------------------|
B|---------------------------------------------|
G|--5-4----5-4----5-4----5-4----7--------------|
D|--0-0----0-0----0-0----0-0----0--------------|
A|--5-5----5-5----5-5----5-5----7--------------|
D|---------------------------------------------|

e|--------------------------------------------------|
B|--------------------------------------------------|
G|-10-10-10-10-10-10-10-10--9-9-9-9--9--9--9--9-----|
D|-8--8--8--8--8--8--8--8---8-8-8-8--10-10-10-10----|
A|-8--8--8--8--8--8--8--8---8-8-8-8--8--8--8--8-----|
D|-8--8--8--8--8--8--8--8---8-8-8-8--8--8--8--8-----|

e|--------------------------------------------------|
B|--------------------------------------------------|
G|-10-10-10-10-10-10-10-10--9-9-9-9--9--9--9--9-----|
D|-8--8--8--8--8--8--8--8---8-8-8-8--10-10-10-10----|
A|-8--8--8--8--8--8--8--8---8-8-8-8--8--8--8--8-----|
D|-8--8--8--8--8--8--8--8---8-8-8-8--8--8--8--8-----|

i'll recover if you want me to
e|--7-7-7-7-7-7-7-7-7-8-8-8-8-8-8-8----|
B|--6-6-6-6-6-6-6-6-6-6-6-6-6-6-6-6----|
G|--5-5-5-5-5-5-5-5-5-5-5-5-5-5-5-5----|
D|-------------------------------------|
A|-------------------------------------|
D|-------------------------------------|

dig my way out of my black mood
e|--7-7-7-7-7-7-7-7-8-8-8-8-8-8-8-8----|
B|--6-6-6-6-6-6-6-6-6-6-6-6-6-6-6-6----|
G|--5-5-5-5-5-5-5-5-5-5-5-5-5-5-5-5----|
D|-------------------------------------|
A|-------------------------------------|
D|-------------------------------------|

wait for the sun to fade
e|--7-7-7-7-7-7-7-7-8-8-8-8-8-8-8-8----|
B|--6-6-6-6-6-6-6-6-6-6-6-6-6-6-6-6----|
G|--5-5-5-5-5-5-5-5-5-5-5-5-5-5-5-5----|
D|-------------------------------------|
A|-------------------------------------|
D|-------------------------------------|

e|--7-7-7-7-7-7-7-7-8-8-8-8-8-8-8-8----|
B|--6-6-6-6-6-6-6-6-6-6-6-6-6-6-6-6----|
G|--5-5-5-5-5-5-5-5-5-5-5-5-5-5-5-5----|
D|-------------------------------------|
A|-------------------------------------|
D|-------------------------------------|

why cant we hide our useless lives?
e|--8-8-8-8-8-8-8-8-6-6-6-6-6-6-6-6----|
B|--6-6-6-6-6-6-6-6-6-6-6-6-6-6-6-6----|
G|--5-5-5-5-5-5-5-5-5-5-5-5-5-5-5-5----|
D|-------------------------------------|
A|-------------------------------------|
D|-------------------------------------|

you hide  your time so well
e|------------------------------------------|
B|------------------------------------------|
G|--5-4----5-4----5-4----5-4----7-----------|
D|--0-0----0-0----0-0----0-0----0-----------|
A|--5-5----5-5----5-5----5-5----7-----------|
D|------------------------------------------|

small scars of love and hate and happiness
e|----------------------------------------------|
B|----------------------------------------------|
G|--5-4----5-4----5-4----5-4----0---------------|
D|--0-0----0-0----0-0----0-0----5---------------|
A|--5-5----5-5----5-5----5-5----5---------------|
D|----------------------------------------------|

you hide  your scars so well
e|---------------------------------------------|
B|---------------------------------------------|
G|--5-4----5-4----5-4----5-4----7--------------|
D|--0-0----0-0----0-0----0-0----0--------------|
A|--5-5----5-5----5-5----5-5----7--------------|
D|---------------------------------------------|

e|--------------------------------------------------|
B|--------------------------------------------------|
G|-10-10-10-10-10-10-10-10--9-9-9-9--9--9--9--9-----|
D|-8--8--8--8--8--8--8--8---8-8-8-8--10-10-10-10----|
A|-8--8--8--8--8--8--8--8---8-8-8-8--8--8--8--8-----|
D|-8--8--8--8--8--8--8--8---8-8-8-8--8--8--8--8-----|

e|--------------------------------------------------|
B|--------------------------------------------------|
G|-10-10-10-10-10-10-10-10--9-9-9-9--9--9--9--9-----|
D|-8--8--8--8--8--8--8--8---8-8-8-8--10-10-10-10----|
A|-8--8--8--8--8--8--8--8---8-8-8-8--8--8--8--8-----|
D|-8--8--8--8--8--8--8--8---8-8-8-8--8--8--8--8-----|

you hide  your time so well
e|------------------------------------------|
B|------------------------------------------|
G|--5-4----5-4----5-4----5-4----7-----------|
D|--0-0----0-0----0-0----0-0----0-----------|
A|--5-5----5-5----5-5----5-5----7-----------|
D|------------------------------------------|

small scars of love and hate and happiness
e|----------------------------------------------|
B|----------------------------------------------|
G|--5-4----5-4----5-4----5-4----0---------------|
D|--0-0----0-0----0-0----0-0----5---------------|
A|--5-5----5-5----5-5----5-5----5---------------|
D|----------------------------------------------|

you hide  your scars so well
e|---------------------------------------------|
B|---------------------------------------------|
G|--5-4----5-4----5-4----5-4----7--------------|
D|--0-0----0-0----0-0----0-0----0--------------|
A|--5-5----5-5----5-5----5-5----7--------------|
D|---------------------------------------------|

e|--------------------------------------------------|
B|--------------------------------------------------|
G|-10-10-10-10-10-10-10-10--9-9-9-9--9--9--9--9-----|
D|-8--8--8--8--8--8--8--8---8-8-8-8--10-10-10-10----|
A|-8--8--8--8--8--8--8--8---8-8-8-8--8--8--8--8-----|
D|-8--8--8--8--8--8--8--8---8-8-8-8--8--8--8--8-----|

e|--------------------------------------------------|
B|--------------------------------------------------|
G|-10-10-10-10-10-10-10-10--9-9-9-9--9--9--9--9-----|
D|-8--8--8--8--8--8--8--8---8-8-8-8--10-10-10-10----|
A|-8--8--8--8--8--8--8--8---8-8-8-8--8--8--8--8-----|
D|-8--8--8--8--8--8--8--8---8-8-8-8--8--8--8--8-----|

guitar solo bit

e|-----------------------------------------------|
B|---------10---------------------------11-10----|
G|------------10-----12-9--------9-12-9----------|
D|------0--------10-------10-7-8-----------------|
A|----0------------------------------------------|
D|--0--------------------------------------------|

e|-----------------------------------------------|
B|---------10------------------------------------|
G|------------10-----12-9--------9-12-9----9-----|
D|------0--------10-------10-7-8--------10-------|
A|----0------------------------------------------|
D|--0--------------------------------------------|

e|-----------------------------------------------|
B|---------10---------------------------11-10----|
G|------------10-----12-9--------9-12-9----------|
D|------0--------10-------10-7-8-----------------|
A|----0------------------------------------------|
D|--0--------------------------------------------|

e|-----------------------------------------------|
B|---------10------------------------------------|
G|------------10-----12-9--------9-12-9----9-----|
D|------0--------10-------10-7-8--------10-------|
A|----0------------------------------------------|
D|--0--------------------------------------------|

e|---------------------o-------------------------------------------|
B|---------------------o----------------------15----15----17-------|
G|--12-14-14--12-14----o----12-14-14--12-14------14----14----14----|
D|--12-12-12--12-12----o----12-12-12--12-12------------------------|
A|---------------------o-------------------------------------------|
D|---------------------o-------------------------------------------|

e|--------------------------------------17----|
B|--------------------20----18-17-------------|
G|--12-14-14--12-14------17-------19-18-------|
D|--12-12-12--12-12---------------------------|
A|--------------------------------------------|
D|--------------------------------------------|

e|----------------------------------------------------|
B|-----------------------------17-----------18-17-----|
G|--12-14-14--12-14---------14-----------15-----------|
D|--12-12-12--12-12---14-15--------15-17--------------|
A|----------------------------------------------------|
D|----------------------------------------------------|

e|----------------------------------------------------------------------|
B|----------------------------------------------------------------------|
G|----------------------------------------------------------------------|
D|--10--12--12---10--12---0---0------10--12--12---10--12---0---0---0----|
A|--10--12--12---10--12---0---0------10--12--12---10--12---0---0---0----|
D|--10--12--12---10--12---0---0------10--12--12---10--12---0---0---0----|

[this next bit is played twice]
                                     and nothing matters anymore
e|----------------------------------------------------------------------|
B|----------------------------------------------------------------------|
G|--7-7-7-7-7-7-7-7-7-7-7-7-7-7-7-7--5-5-5-5-5-5-5-5-5-5-5-5-5-5-5-5----|
D|--8-8-8-8-8-8-8-8-8-8-8-8-8-8-8-8--5-5-5-5-5-5-5-5-5-5-5-5-5-5-5-5----|
A|--6-6-6-6-6-6-6-6-6-6-6-6-6-6-6-6--3-3-3-3-3-3-3-3-3-3-3-3-3-3-3-3----|
D|----------------------------------------------------------------------|
    and nothing matters anymore      and nothing matters anymore
e|----------------------------------------------------------------------|
B|----------------------------------------------------------------------|
G|-----------------------------------7-7-7-7-7-7-7-7-7-7-7-7-7-7-7-7----|
D|--3-3-3-3-3-3-3-3-3-3-3-3-3-3-3-3--8-8-8-8-8-8-8-8-8-8-8-8-8-8-8-8----|
A|--3-3-3-3-3-3-3-3-3-3-3-3-3-3-3-3--6-6-6-6-6-6-6-6-6-6-6-6-6-6-6-6----|
D|--3-3-3-3-3-3-3-3-3-3-3-3-3-3-3-3-------------------------------------|
    and nothing matters anymore      and nothing matters anymore
e|----------------------------------------------------------------------|
B|----------------------------------------------------------------------|
G|--5-5-5-5-5-5-5-5-5-5-5-5-5-5-5-5-------------------------------------|
D|--5-5-5-5-5-5-5-5-5-5-5-5-5-5-5-5--5-5-5-5-5-5-5-5-5-5-5-5-5-5-5-5----|
A|--3-3-3-3-3-3-3-3-3-3-3-3-3-3-3-3--5-5-5-5-5-5-5-5-5-5-5-5-5-5-5-5----|
D|-----------------------------------5-5-5-5-5-5-5-5-5-5-5-5-5-5-5-5----|

[play that twice and finish with this]

e|--------------------------|
B|--------------------------|
G|--------------------------|
D|--3--5-5-5--3--5----------|
A|--3--5-5-5--3--5----------|
D|--3--5-5-5--3--5----------|

sorry if the tab's a bit long :p

jiro_the_fish91@hotmail.com
Tap to rate this tab
 
# A B C D E F G H I J K L M N O P Q R S T U V W X Y Z