Song name
# A B C D E F G H I J K L M N O P Q R S T U V W X Y Z

Biffy Clyro - That Golden Rule tab

ok this is my first tab - its just the violin bit for that golden rule :)



D|-17------------------17------------------------------------------| x2
A|-----15--18--15----------15--18--15--15--15--15--15--------------|
F|-----------------------------------------------------------------|
C|-----------------------------------------------------------------|
G|-----------------------------------------------------------------|
C|-----------------------------------------------------------------|

D|-17--18--17--20--17--18--17--20--20--20--20--20----| x2
A|---------------------------------------------------|
F|---------------------------------------------------|
C|---------------------------------------------------|
G|---------------------------------------------------|
C|---------------------------------------------------|

play both those bits twice, then:

D|----------------------------------------------------------------------------------|
A|----------------------------------------------------------------------------------|
F|----------------------------------------------------------------------------------|
C|--7-------------7-----------------7-------------7---------------------------------|
G|-----5--8--5------5--8--5---------5--8--5------5--8--5----------------------------|
C|----------------------------------------------------------------------------------|

D|----------------------------------------------------------------------------------|
A|----------------------------------------------------------------------------------|
F|----------------------------------------------------------------------------------|
C|--7--8--7--10-----7--8--7--10------7--8--7--10-----7--8--7--10--------------------|
G|----------------------------------------------------------------------------------|
C|----------------------------------------------------------------------------------|

D|-17------------------17---------------------17--------------------17--------------|
A|-----15--18--15----------15--18--15---------15--18--15--------15--18--15----------|
F|----------------------------------------------------------------------------------|
C|----------------------------------------------------------------------------------|
G|----------------------------------------------------------------------------------|
C|----------------------------------------------------------------------------------|

D|-17--18--17--20----17--18--17--20----17--18--17--20----17--18--17--20/------------|
A|----------------------------------------------------------------------------------|
F|----------------------------------------------------------------------------------|
C|----------------------------------------------------------------------------------|
G|----------------------------------------------------------------------------------|
C|----------------------------------------------------------------------------------|
Tap to rate this tab
 
# A B C D E F G H I J K L M N O P Q R S T U V W X Y Z