Song name
# A B C D E F G H I J K L M N O P Q R S T U V W X Y Z

Biffy Clyro - Bubbles tab

-------------------------------------------------------------------------------
			     Bubbles - Biffy Clyro
-------------------------------------------------------------------------------
Tabbed by: steveprudden
Tuning:Drop D

This is my favourite song off the new album. I really wanted to know how to play
that cool intro and chorus bit so had to work it out for myself. I figured I had
worked out the hard bit so tried to finish the whole song. There are a couple of
bits missing and I know for a fact that some ofthe phrasing is incorrect but I
plan on making corrections as I work it out.

Intro
Repeat x4
e|---------------------------------------------------------------------------|
B|-----11h13p11--------------------------------------------------------------|
G|--12---------h12-----------------------------------------------------------|
D|---------------------------------------------------------------------------|
A|---------------------------------------------------------------------------|
D|---------------------------------------------------------------------------|

Verse
Repeat x2
e|--11------11-8-6-8---6----8----6----8--10--11--11--------------------------|
B|--8-------8--9-8-9---8----9----8----9--9---9---8---------------------------|
G|--8-------8--8-8-8---8----8----8----8--8---8---8---------------------------|
D|---------------------------------------------------------------------------|
A|---------------------------------------------------------------------------|
D|---------------------------------------------------------------------------|

 On the last repetition play this after
e|--8--10--11--11------------------------------------------------------------|
B|--9--9---9---9-------------------------------------------------------------|
G|--8--8---8---8-------------------------------------------------------------|
D|-------------10------------------------------------------------------------|
A|-------------8-------------------------------------------------------------|
D|---------------------------------------------------------------------------|

Chorus
Repeat x2
e|---------------------------------------------------------------------------|
B|-----11h13p11--------------6h8p6-------------6h8p6------------6h8p6--------|
G|--12---------h12-(x4)----8------h8-(x4)----7------h7-(x4)----8-----h8-(x4)-|
D|---------------------------------------------------------------------------|
A|---------------------------------------------------------------------------|
D|---------------------------------------------------------------------------|

Post Chorus
e|---------------------------------------------------------------------------|
B|---------------------------------------------------------------------------|
G|---------------------------------------------------------------------------|
D|-1--1--1-1--3--3-3--5--5-5--6--6--6-6--1--1--1-1--10--10--10-10--6--6--6-6-|
A|-1--1--1-1--3--3-3--5--5-5--6--6--6-6--1--1--1-1--10--10--10-10--6--6--6-6-|
D|-1--1--1-1--3--3-3--5--5-5--6--6--6-6--1--1--1-1--10--10--10-10--6--6--6-6-|

e|---------------------------------------------------------------------------|
B|---------------------------------------------------------------------------|
G|---------------------------------------------------------------------------|
D|-8--8--8-8--8--8--8-8--10--10--10-10--6--6--6-6--10--10--10-10--1--1--1-1--|
A|-8--8--8-8--8--8--8-8--10--10--10-10--6--6--6-6--10--10--10-10--1--1--1-1--|
D|-8--8--8-8--8--8--8-8--10--10--10-10--6--6--6-6--10--10--10-10--1--1--1-1--|

e|------------------------------------------------------------------------------|
B|------------------------------------------------------------------------------|
G|------------------------------------------------------------------------------|
D|-3--3--3-3--3--3-3--5--5-5--6--6--6-6--6--6--6-6--1---------------------------|
A|-3--3--3-3--3--3-3--5--5-5--6--6--6-6--6--6--6-6--1---------------------------|
D|-3--3--3-3--3--3-3--5--5-5--6--6--6-6--6--6--6-6--1---------------------------|

Outro
Repeat until end
e|---------------------------------------------------------------------------|
B|--------6--------6----------6-4-3----6-4-3---------------------------------|
G|--5-7-8----5-7-8----(x7)----------3--------3-------------------------------|
D|---------------------------------------------------------------------------|
A|---------------------------------------------------------------------------|
D|---------------------------------------------------------------------------|


| /  slide up
| \  slide down
| h  hammer-on
| p  pull-off
| ~  vibrato
| +  harmonic
| x  Mute note
===============================================================================
Tap to rate this tab
 
# A B C D E F G H I J K L M N O P Q R S T U V W X Y Z