Song name
# A B C D E F G H I J K L M N O P Q R S T U V W X Y Z

Biffy Clyro - Born On A Horse tab

-------------------------------------------------------------------------------
			     Born on a Horse - Biffy Clyro
-------------------------------------------------------------------------------
Tabbed by: Andy
Email: andy_rhcp@hotmail.co.uk

Tuning: Drop D

Clean
e|--------------------------------------------------------------------------|
B|--------------------------------------------------------------------------|
G|--------------------------------------------------------------------------|
D|--------------------------------------------------------------------------|
A|-6-6-6-6-6-6-6-6-6-6-6-6-6-6-6-6/-----------------------------------------|
D|--------------------------------------------------------------------------|

e|--------------------------------------------------------------------------|
B|--------------------------------------------------------------------------|
G|---------------------------------6-6-6-6-6-6-6-6-6-6-6-6------------------|
D|-6-6-6-6-6-6-6-6-6-6-6-6-6-6-6-6------------------------------------------|
A|--------------------------------------------------------------------------|
D|--------------------------------------------------------------------------|

e|--------------------------------------------------------------------------|
B|--------------------------------------------------------------------------|
G|---------------------------------8-8-8-8-8---8----------------------------|
D|-4-4-4-4-4-4-4-4-4-4-4-4-4-4-4-4-6-6-6-6-6-5-6----------------------------|
A|--------------------------------------------------6-6-6-------------------|
D|--------------------------------------------------------------------------|

e|--------------------------------------------------------------------------|
B|--------------------------------------------------------------------------|
G|---8-8-8---------13-13-13---------4-4-4--------11-11-11-----11-11-11------|
D|-6-------6----11----------11----2-------2----9----------9-8----------8----|
A|--------------------------------------------------------------------------|
D|--------------------------------------------------------------------------|

e|--------------------------------------------------------------------------|
B|--------------------------------------------------------------------------|
G|---8-8-8---------13-13-13---------6-6-6--------11-11-11-----11-11-11------|
D|-6-------6----11----------11----4-------4----9----------9-8----------8----|
A|--------------------------------------------------------------------------|
D|--------------------------------------------------------------------------|

Distortion
e|--------------------------------------------------------------------------|
B|--------------------------------------------------------------------------|
G|--------------------------------------------------------------------------|
D|-9-9-9-9-9-9-9-9-9-9-9-6-6-6-6-6-6-6-6-6-6-11-11-14-14-13-13-11-11-13-13--|
A|-9-9-9-9-9-9-9-9-9-9-9-6-6-6-6-6-6-6-6-6-6-11-11-11-11-11-11-11-11-11-11--|
D|-9-9-9-9-9-9-9-9-9-9-9-6-6-6-6-6-6-6-6-6-6-11-11-11-11-11-11-11-11-11-11--|

e|--------------------------------------------------------------------------|
B|--------------------------------------------------------------------------|
G|--------------------------------------------------------------------------|
D|-14-14-14-14-14-16-16-16-16-16--------------------------------------------|
A|-14-14-14-14-14-16-16-16-16-16--------------------------------------------|
D|-14-14-14-14-14-16-16-16-16-16--------------------------------------------|

e|--------------------------------------------------------------------------|
B|--------------------------------------------------------------------------|
G|--------------------------------------------------------------------------|
D|-6-6-6-6-6-11-11-11-11-11-2-2-2-2-2-9-9-8-8-------------------------------|
A|-6-6-6-6-6-11-11-11-11-11-2-2-2-2-2-9-9-8-8-------------------------------|
D|-6-6-6-6-6-11-11-11-11-11-2-2-2-2-2-9-9-8-8-------------------------------|

e|--------------------------------------------------------------------------|
B|--------------------------------------------------------------------------|
G|--------------------------------------------------------------------------|
D|-6-6-6-6-6-11-11-11-11-11-4-4-4-4-4---------------------------------------|
A|-6-6-6-6-6-11-11-11-11-11-4-4-4-4-4---------------------------------------|
D|-6-6-6-6-6-11-11-11-11-11-4-4-4-4-4---------------------------------------|

Clean
e|--------------------------------------------------------------------------|
B|-------------9------------------------------------------------------------|
G|--------------------------------------------------------------------------|
D|-6-6-6-6-4-6--------------------------------------------------------------|
A|--------------------------------------------------------------------------|
D|--------------------------------------------------------------------------|


| /  slide up
| \  slide down
| h  hammer-on
| p  pull-off
| ~  vibrato
| +  harmonic
| x  Mute note
===============================================================================
Tap to rate this tab
# A B C D E F G H I J K L M N O P Q R S T U V W X Y Z