Song name
# A B C D E F G H I J K L M N O P Q R S T U V W X Y Z

Biffy Clyro - Born On A Horse tab

Born On a Horse
Biffy Clyro

Tuning - C#-G#-C#-F#-A#-D#


my take on this song :)


Clean
|--------------------------------------------------------------------------|
|--------------------------------------------------------------------------|
|--------------------------------------------------------------------------|
|--------------------------------------------------------------------------|
|-7-7-7-7-7-7-7-7-7-7-7-7-7-7-7-7/-----------------------------------------|
|--------------------------------------------------------------------------|

lightly strummed - with some notes accented but you can figure that bit out.
|---------------------------------------------------------------------------|
|---------------------------------------------------------------------------|
|---------------------------------7-7-7-7-7-7-7-7-7-7-7-7-------------------|
|-7-7-7-7-7-7-7-7-7-7-7-7-7-7-7-7-7-7-7-7-7-7-7-7-7-7-7-7-------------------|
|---------------------------------------------------------------------------|
|---------------------------------------------------------------------------|

|---------------------------------------------------------------------------|
|---------------------------------------------------------------------------|
|-5-5-5-5-5-5-5-5-5-5-5-5-5-5-5-5-7-7-7-7-7-7-----7-------------------------|
|-5-5-5-5-5-5-5-5-5-5-5-5-5-5-5-5-7-7-7-7-7-7-5-5-7-------------------------|
|-------------------------------------------------------7-7-7---------------|
|---------------------------------------------------------------------------|

|---------------------------------------------------------------------------|
|---------------------------------------------------------------------------|
|----------------141414-----------------121212------121212------------------|
|---141414-----12------12----101010---10------10---9------9-----------------|
|-12------12----------------8------8----------------------------------------|
|---------------------------------------------------------------------------|

|---------------------------------------------------------------------------|
|---------------------------------------------------------------------------|
|----------------141414-------------------121212------121212----------------|
|---141414-----12------12----121212-----10------10---9------9---------------|
|-12------12---------------10------10---------------------------------------|
|---------------------------------------------------------------------------|x2



then kicks in with distortion.

|---------------------------------------------------------------------------|
|---------------------------------------------------------------------------|
|----------------12-12-9-9-------9--9-------------12-12-9-9-------10-10-----|
|-10-10-12b13r10-x---x--x-12-12--x--x--7-7-9b107--x--x--x-x-12-12-----------|
|-10-10-10-------10-10-10-10-10-10-10--7-7-7------7--7--7-7-7--7--7-7-7-----|
|-10-10-10-------10-10-10-10-10-10-10--7-7-7------7--7--7-7-7--7--7-7-7-----|

|---------------------------------------------------------------------------|
|---------------------------------------------------------------------------|
|---------------10-10--9-9-------9-9--1010101010-12-12-9--9--------9--9-----|
|-0-0-12b13r10--x---x--x---12-12-x-x--1010101010-x---x-x--x--12-12-x--x-----|
|-0-0-0---------0---0--0-0--0--0-0-0--8-8-8-8-8--10-10-10-10-10-10-10-10----|
|-0-0-0---------0---0--0-0--0--0-0-0----------------------------------------|x2

|---------------------------------------------------------------------------|
|---------------------------------------------------------------------------|
|---------------------------------------------------------------------------|
|-7-7-7-7-7-0-0-0-0-0-3-3-3-3-3-10-10-10-10-9-9-9-9-------------------------|
|-7-7-7-7-7-0-0-0-0-0-3-3-3-3-3-10-10-10-10-9-9-9-9-------------------------|
|-7-7-7-7-7-0-0-0-0-0-3-3-3-3-3-10-10-10-10-9-9-9-9-------------------------|

|---------------------------------------------------------------------------|
|---------------------------------------------------------------------------|
|---------------------------------------------------------------------------|
|-7-7-7-7-7-0-0-0-0-0-5-5-5-5-5---------------------------------------------|
|-7-7-7-7-7-0-0-0-0-0-5-5-5-5-5---------------------------------------------|
|-7-7-7-7-7-0-0-0-0-0-5-5-5-5-5---------------------------------------------|
--
Clean
|---------------------------------------------------------------------------|
|--------------------------------------------------10-----------------------|
|--7-7-7-7-7-7-7-7-7-7-7-7-7-7-7-7-7-7-7-7-7-5-5----------------------------|
|--7-7-7-7-7-7-7-7-7-7-7-7-7-7-7-7-7-7-7-7-7-5-5-7--------------------------|
|---------------------------------------------------------------------------|
|---------------------------------------------------------------------------|

first tab so go easy.
Tap to rate this tab
# A B C D E F G H I J K L M N O P Q R S T U V W X Y Z