Song name
# A B C D E F G H I J K L M N O P Q R S T U V W X Y Z

Biffy Clyro - Many Of Horror tab

One of my favourite songs from the new album, Many of Horror.
The guitar is tuned half a step down throughout the song.
I put the chords above the lead, if you want an easier option.
Enjoy :)

Verse (0,00) (D, A, Bm, A)

D#|----------------------------------------------|
A#|----------------------------------------------|
F#|-7-9-11-----2-4-6-----12-11-7-----12-11-6-----| X
C#|-0-0-0------0-0-0-----0--0--0-----0--0--0-----| 2
G#|----------------------------------------------|
D#|-7-9-10-----2-3-5-----12-10-7-----12-10-5-----|

Pre-Chorus (0,47) (G, D/F#, A)

D#|------------------------------|
A#|------------------------------|
F#|-7-9/11\4-----2/7\4-----6-----|
C#|-0-0/0-\0-----0/0\0-----0-----|
G#|------------------------------|
D#|-7-9/10\3-----2/7\3-----5-----|

Chorus (1,00) (D, Bm, G)

D#|--------------------------------|
A#|--------------------------------|
F#|-12-11-9-11-----12-11-9-7-4-----| X
C#|-0--0--0-0------0--0--0-0-0-----| 2
G#|--------------------------------|
D#|-12-10-9-10-----12-10-9-7-3-----|

Verse 2(1,25) (D, A, Bm, A)

D#|----------------------------------------------|
A#|----------------------------------------------|
F#|-7-9-11-----2-4-6-----12-11-7-----12-11-6-----|
C#|-0-0-0------0-0-0-----0--0--0-----0--0--0-----|
G#|----------------------------------------------|
D#|-7-9-10-----2-3-5-----12-10-7-----12-10-5-----|

Pre-Chorus (1,48) (G, D/F#, A)

D#|------------------------------|
A#|------------------------------|
F#|-7-9/11\4-----2/7\4-----6-----|
C#|-0-0/0-\0-----0/0\0-----0-----|
G#|------------------------------|
D#|-7-9/10\3-----2/7\3-----5-----|

Chorus (2,01) (D, Bm, G)

D#|--------------------------------|
A#|--------------------------------|
F#|-12-11-9-11-----12-11-9-7-4-----| X
C#|-0--0--0-0------0--0--0-0-0-----| 2
G#|--------------------------------|
D#|-12-10-9-10-----12-10-9-7-3-----|

Bridge (2,24) (A, Bm, G, A, D, A, Bm, A)

D#|-------------------------------------------------------------|
A#|-------------------------------------------------------------|
F#|-6-----7---4--6-7-9-11-----2-4-6-----12-11-7-----12-11-6-----|
C#|-0-----0---0--0-0-0-0------0-0-0-----0--0--0-----0--0--0-----|
G#|-------------------------------------------------------------|
D#|-5-----7---3--5-7-9-10-----2-3-5-----12-10-7-----12-10-5-----|

Instumental Verse (2,58) (D, A, Bm, A)

D#|----------------------------------------------|
A#|----------------------------------------------|
F#|-7-9-11-----2-4-6-----12-11-7-----12-11-6-----|
C#|-0-0-0------0-0-0-----0--0--0-----0--0--0-----|
G#|----------------------------------------------|
D#|-7-9-10-----2-3-5-----12-10-7-----12-10-5-----|

Pre-Chorus (3,22) (G, D/F#, A)

D#|------------------------------|
A#|------------------------------|
F#|-7-9/11\4-----2/7\4-----6-----|
C#|-0-0/0-\0-----0/0\0-----0-----|
G#|------------------------------|
D#|-7-9/10\3-----2/7\3-----5-----|

Chorus (3,34) (D, Bm, G)

D#|--------------------------------|
A#|--------------------------------|
F#|-12-11-9-11-----12-11-9-7-4-----| X
C#|-0--0--0-0------0--0--0-0-0-----| 2
G#|--------------------------------|
D#|-12-10-9-10-----12-10-9-7-3-----|

End on G

Tap to rate this tab
# A B C D E F G H I J K L M N O P Q R S T U V W X Y Z