Song name
# A B C D E F G H I J K L M N O P Q R S T U V W X Y Z

Biffy Clyro - Whorses tab

Whorses
Biffy Clyro
Tabbed by David Newton

Intro
                                                                       
D#|10------|--------|10------|--------|10------|--------|10------|--------|
A#|10------|--------|12------|--------|10------|--------|12------|--------|
F#|11------|--------|12------|--------|11------|--------|11------|--------|
C#|--------|--------|--------|--------|--------|--------|--------|--------|
G#|--------|--------|--------|--------|--------|--------|--------|--------|
C#|--------|--------|--------|--------|--------|--------|--------|--------|

Verse (Bass Plays notes above tab)

   D                 E                 F#                B
D#|10------|--------|10------|--------|10------|--------|10------|--------|
A#|10------|--------|12------|--------|10------|--------|12------|--------|
F#|11------|--------|12------|--------|11------|--------|11------|--------|
C#|--------|--------|--------|--------|--------|--------|--------|--------|
G#|--------|--------|--------|--------|--------|--------|--------|--------|
C#|--------|--------|--------|--------|--------|--------|--------|--------|
 
   G                 G
D#|10------|--------|10------|--------|
A#|10------|--------|12------|--------|
F#|11------|--------|12------|--------|
C#|--------|--------|--------|--------|
G#|--------|--------|--------|--------|
C#|--------|--------|--------|--------|


Chorus

D#|10------|--------|10------|9-------|10------|--------|
A#|10------|--------|10------|10------|12------|--------|
F#|11------|--------|11------|11------|12------|--------|
C#|--------|--------|--------|--------|--------|--------|
G#|--------|--------|--------|--------|--------|--------|
C#|--------|--------|--------|--------|--------|--------|
 
Repeat Verse & Chorus



Post Chorus (Clean)
D#|12------|--------|10------|10------|12------|--------|10------|10------|
A#|14------|--------|10------|12------|14------|--------|12------|12------|
F#|14------|--------|11------|12------|14------|--------|11------|12------|
C#|--------|--------|--------|--------|--------|--------|--------|--------|
G#|--------|--------|--------|--------|--------|--------|--------|--------|
C#|--------|--------|--------|--------|--------|--------|--------|--------|
 
                                                         
D#|12------|--------|5-------|7-------|7-------|5-------|
A#|14------|--------|7-------|8-------|7-------|5-------|
F#|14------|--------|7-------|9-------|7-------|6-------|
C#|--------|--------|--------|--------|9-------|7-------|
G#|--------|--------|--------|--------|--------|--------|
C#|--------|--------|--------|--------|--------|--------|


Verse (Picked)

D#|------10--------|------10--------|------10--------|------10--------|
A#|--10------10--10|--10------10--10|--12------12--12|--12------12--12|
F#|11--11--11--11--|11--11--11--11--|12--12--12--12--|12--12--12--12--|
C#|----------------|----------------|----------------|----------------|
G#|----------------|----------------|----------------|----------------|
C#|----------------|----------------|----------------|----------------|
 
                                                                       
D#|------10--------|------10--------|------10--------|------10--------|
A#|--10------10--10|--10------10--10|--12------12--12|--12------12--12|
F#|11--11--11--11--|11--11--11--11--|11--11--11--11--|11--11--11--11--|
C#|----------------|----------------|----------------|----------------|
G#|----------------|----------------|----------------|----------------|
C#|----------------|----------------|----------------|----------------|
 
                                                                       
D#|------10--------|------10--------|------10--------|------10--------|
A#|--12------12--12|--12------12--12|--11------11--11|--11------11--11|
F#|12--12--12--12--|12--12--12--12--|12--12--12--12--|12--12--12--12--|
C#|----------------|----------------|----------------|----------------|
G#|----------------|----------------|----------------|----------------|
C#|----------------|----------------|----------------|----------------|

  Chorus (Heavy)

D#|----------------|----------------|----------------|----------------|
A#|----------------|----------------|----------------|----------------|
F#|----------------|----------------|----------------|----------------|
C#|0-0-0-0-0-0-0-0-|0-0-0-0-0-0-0-0-|0-0-0-0-0-0-0-0-|4-4-4-4-4-4-4-4-|
G#|0-0-0-0-0-0-0-0-|0-0-0-0-0-0-0-0-|0-0-0-0-0-0-0-0-|4-4-4-4-4-4-4-4-|
C#|0-0-0-0-0-0-0-0-|0-0-0-0-0-0-0-0-|0-0-0-0-0-0-0-0-|4-4-4-4-4-4-4-4-|
 
                                                                       
D#|----------------|----------------|
A#|----------------|----------------|
F#|----------------|----------------|
C#|5-5-5-5-5-5-5-5-|5-5-5-5-5-5-5-5-|
G#|5-5-5-5-5-5-5-5-|5-5-5-5-5-5-5-5-|
C#|5-5-5-5-5-5-5-5-|5-5-5-5-5-5-5-5-|   Repeat

 
Post Chorus (Heavy)

D#|----------------|----------------|----------------|----------------|
A#|----------------|----------------|----------------|----------------|
F#|----------------|----------------|----------------|----------------|
C#|7-7-7---7-7-----|7-7-7---7-7-----|0-0-0---0-0-0---|5-5-5---5-5-----|
G#|7-7-7---7-7-----|7-7-7---7-7-----|0-0-0---0-0-0---|5-5-5---5-5-----|
C#|7-7-7---7-7-----|7-7-7---7-7-----|0-0-0---0-0-0---|5-5-5---5-5-----|
 
                                                                       
D#|----------------|----------------|----------------|----------------|
A#|----------------|----------------|----------------|----------------|
F#|----------------|----------------|----------------|----------------|
C#|7-7-7---7-7-----|7-7-7---7-7-----|9-9-9---9-9-----|5-5-5---5-5-----|
G#|7-7-7---7-7-----|7-7-7---7-7-----|9-9-9---9-9-----|5-5-5---5-5-----|
C#|7-7-7---7-7-----|7-7-7---7-7-----|9-9-9---9-9-----|5-5-5---5-5-----|

D#|--------------------------------|--------------------------------|
A#|--------------------------------|--------------------------------|
F#|--------------------------------|--------------------------------|
C#|7-----------7---7-----7-----7---|7-----7-----7---7-----7-----7---|
G#|7-----------7---7-----7-----7---|7-----7-----7---7-----7-----7---|
C#|7-----------7---7-----7-----7---|7-----7-----7---7-----7-----7---|
 
                                                                     
D#|--------------------------------|--------------------------------|
A#|--------------------------------|--------------------------------|
F#|--------------------------------|--------------------------------|
C#|0-----0-----0---0-----0-----0---|2-----2-----2---2-----2-----2---|
G#|0-----0-----0---0-----0-----0---|2-----2-----2---2-----2-----2---|
C#|0-----0-----0---0-----0-----0---|2-----2-----2---2-----2-----2---|
 
                                                                     
D#|--------------------------------|--------------------------------|
A#|--------------------------------|--------------------------------|
F#|--------------------------------|--------------------------------|
C#|9---9---9---9---9---9---9---9---|7---7---7---7---7---7---7---7---|
G#|9---9---9---9---9---9---9---9---|7---7---7---7---7---7---7---7---|
C#|9---9---9---9---9---9---9---9---|7---7---7---7---7---7---7---7---|


Middle 8 Pt 1

D#|--------------------------------|--------------------------------|
A#|--------------------------------|--------------------------------|
F#|--------------------------------|--------------------------------|
C#|0---0---0---0---0---0---0---0---|0-------------------------------|
G#|0---0---0---0---0---0---0---0---|0-----------9---9---------------|
C#|0---0---0---0---0---0---0---0---|0---9---9-----------10--10--10--|
 
                                                                             
D#|--------------------------------|----------------------------------------|
A#|--------------------------------|----------------------------------------|
F#|12--x-x-12--x-x-x-x-12--x-x-12--|x-x-x-x-12--x-x-12--x-x-x-x-12--12--12--|
C#|--------------------------------|----------------------------------------|
G#|10--x-x-10--x-x-x-x-10--x-x-10--|x-x-x-x-10--x-x-10--x-x-x-x-10--10--10--|
C#|--------------------------------|----------------------------------------|
 
                                                                     
D#|--------------------------------|--------------------------------|
A#|--------------------------------|--------------------------------|
F#|--------------------------------|--------------------------------|
C#|0---0---0---0---0---0---0---0---|0-------------------------------|
G#|0---0---0---0---0---0---0---0---|0-----------9---9---------------|
C#|0---0---0---0---0---0---0---0---|0---9---9-----------10--10--10--|
 
                                                                             
D#|--------------------------------|----------------------------------------|
A#|--------------------------------|----------------------------------------|
F#|18--x-x-18--x-x-x-x-18--x-x-18--|x-x-x-x-18--x-x-18--x-x-x-x-18--18--18--|
C#|--------------------------------|----------------------------------------|
G#|17--x-x-17--x-x-x-x-17--x-x-17--|x-x-x-x-17--x-x-17--x-x-x-x-17--17--17--|
C#|--------------------------------|----------------------------------------|
 

Bridge  (Guitar 1)
                                                           
D#|--------------------------------|------------------------|
A#|--------------------------------|------------------------|
F#|--------------------------------|------------------------|
C#|0---0---0---0---0---0---0---0---|0-----------------------|
G#|0---0---0---0---0---0---0---0---|0-----------9---9-------|
C#|0---0---0---0---0---0---0---0---|0---9---9-----------10--|

                                                                     
D#|--------------------------------|--------------------------------|
A#|--------------------------------|--------------------------------|
F#|--------------------------------|--------------------------------|
C#|10--10--10--10--10--10--10--10--|10--10--10--10--10--10--10--10--|
G#|10--10--10--10--10--10--10--10--|10--10--10--10--10--10--10--10--|
C#|10--10--10--10--10--10--10--10--|10--10--10--10--10--10--10--10--|
 
                                                             
D#|--------------------------------|------------------------|
A#|--------------------------------|------------------------|
F#|--------------------------------|------------------------|
C#|0---0---0---0---0---0---0---0---|0-----------------------|
G#|0---0---0---0---0---0---0---0---|0-----------9---9-------|
C#|0---0---0---0---0---0---0---0---|0---9---9-----------10--|
 
                                                                     
D#|--------------------------------|--------------------------------|
A#|--------------------------------|--------------------------------|
F#|--------------------------------|--------------------------------|
C#|10--10--10--10--10--10--10--10--|10--10--10--10--10--10--10------|
G#|10--10--10--10--10--10--10--10--|10--10--10--10--10--10--10------|
C#|10--10--10--10--10--10--10--10--|10--10--10--10--10--10--10------|

Bridge (Guitar 2)
                                                          
D#|----------------|------------|----------------|----------------|
A#|----------------|------------|----------------|----------------|
F#|----------------|------------|----------------|171717--12121212|
C#|----------------|------------|----------------|----------------|
G#|----------------|------------|----------------|151515--10101010|
C#|----------------|------------|----------------|----------------|
 
                                                                   
D#|----------------|------------|----------------|----------------|
A#|----------------|------------|----------------|----------------|
F#|121212121217----|------------|1212121214141414|16161616171717--|
C#|----------------|------------|----------------|----------------|
G#|101010101015----|------------|1010101012121212|14141414151515--|
C#|----------------|------------|----------------|----------------|


Repeat Clean Chorus & Post Chorus

End

D#|--------|
A#|--------|
F#|--------|
C#|0-------|
G#|0-------|
C#|0-------|
Tap to rate this tab
 
# A B C D E F G H I J K L M N O P Q R S T U V W X Y Z