Song name
# A B C D E F G H I J K L M N O P Q R S T U V W X Y Z

Biffy Clyro - Scary Mary tab

I looked around for a tab for this song but the ones that I found weren't quite right. 
I watched them play it on youtube and figured this out going by the fingerings and 
he was playing. Sounds about right to me  :-)
Take note of the tuning - it's in DADGAD, so your two E-strings and your B-string are 
tuned down a tone.

Intro / Verse 1

d]-0-0-0-0-0-0-0-0-0-0-0-0-0-0-0-0-|
a]-3-3-3-3-2-2-2-2-3-3-3-3-3-3-3-3-|
g]-0-0-0-0-0-0-0-0-0-0-0-0-0-0-0-0-|
d]-----------------3-3-3-3-3-3-3-3-|
a]-3-3-3-3-3-3-3-3-----------------|
d]-----------------3-3-3-3-3-3-3-3-|

d]-0-0-0-0-0-0-0-0-0-0-0-0-0-0-0-0-|
a]-7-7-7-7-7-7-7-7-3-3-3-3-3-3-3-3-|
g]-0-0-0-0-0-0-0-0-0-0-0-0-0-0-0-0-|
d]-7-7-7-7-7-7-7-7-3-3-3-3-3-3-3-3-|
a]---------------------------------|
d]-7-7-7-7-7-7-7-7-3-3-3-3-3-3-3-3-|

Repeat x3

Break

d]-0-0-0-0-0-0-0-0-0-0-0-----------|
a]-5-5-5-7-7-7-3-3-3-3-3-----------|
g]-0-0-0-0-0-0-0-0-0-0-0-----------|
d]-5-5-5-7-7-7-3-3-3-3-3-----------|
a]---------------------------------|
d]-5-5-5-7-7-7-3-3-3-3-3-----------|

Verse 2

d]-0-0-0-0-0-0-0-0-0-0-0-0-0-0-0-0-|
a]-3-3-3-3-2-2-2-2-3-3-3-3-3-3-3-3-|
g]-0-0-0-0-0-0-0-0-0-0-0-0-0-0-0-0-|
d]-----------------3-3-3-3-3-3-3-3-|
a]-3-3-3-3-3-3-3-3-----------------|
d]-----------------3-3-3-3-3-3-3-3-|

d]-0-0-0-0-0-0-0-0-0-0-0-----------|
a]-5-5-5-7-7-7-3-3-3-3-3-----------|
g]-0-0-0-0-0-0-0-0-0-0-0-----------|
d]-5-5-5-7-7-7-3-3-3-3-3-----------|
a]---------------------------------|
d]-5-5-5-7-7-7-3-3-3-3-3-----------|

d]-0-0-0-0-0-0-0-0-0-0-0-0-0-0-0-0-|
a]-3-3-3-3-2-2-2-2-3-3-3-3-3-3-3-3-|
g]-0-0-0-0-0-0-0-0-0-0-0-0-0-0-0-0-|
d]-----------------3-3-3-3-3-3-3-3-|
a]-3-3-3-3-3-3-3-3-----------------|
d]-----------------3-3-3-3-3-3-3-3-|

d]-0-0-0-0-0-0-0-0-0-0-0-----------|
a]-5-5-5-2-2-2-3-3-3-3-3-----------|
g]-0-0-0-0-0-0-0-0-0-0-0-----------|
d]-5-5-5-2-2-2-3-3-3-3-3-----------|
a]---------------------------------|
d]-5-5-5-2-2-2-3-3-3-3-3-----------|

d]-0-0-0-0-0-0-0-0-0-0-0-----------|
a]-5-5-5-2-2-2-3-3-3-3-3-----------|
g]-0-0-0-0-0-0-0-0-0-0-0-----------|
d]-5-5-5-2-2-2-3-3-3-3-3-----------|
a]---------------------------------|
d]-5-5-5-2-2-2-3-3-3-3-3-----------|

Chorus

d]-0-0-0-0-0-0-0-0-0-0-0-0-0-0-0---|
a]-2-2-2-2-2-2-2-2-2-2-2-2-2-2-2---|
g]-0-0-0-0-0-0-0-0-0-0-0-0-0-0-0---|
d]-2-2-2-2-2-2-2-2-2-2-2-2-2-2-2---|
a]-0-0-0-0-0-0-0-0-0-0-0-0-0-0-0---|
d]---------------------------------|

d]-0-0-0-0-0-0-0-------------------|
a]-3-3-3-3-5-2-2-------------------|
g]-0-0-0-0-0-0-0-------------------|
d]-3-3-3-3-5-2-2-------------------|
a]---------------------------------|
d]-3-3-3-3-5-2-2-------------------|

Repeat x2

d]-0-0-0-0-0-0-0-0-0-0-0-0-0-0-0---|
a]-2-2-2-2-2-2-2-0-2-2-2-0-2-0-2---|
g]-0-0-0-0-0-0-0-0-0-0-0-0-0-0-0---|
d]-2-2-2-2-2-2-2-2-2-2-2-2-2-2-2---|
a]-0-0-0-0-0-0-0-0-0-0-0-0-0-0-0---|
d]---------------------------------|

d]-0-0-0-0-0-0-0-------------------|
a]-3-3-3-3-5-2-2-------------------|
g]-0-0-0-0-0-0-0-------------------|
d]-3-3-3-3-5-2-2-------------------|
a]---------------------------------|
d]-3-3-3-3-5-2-2-------------------|

d]-0-0-0-0-0-0-0-0-0-0-0-0-0-0-0---|
a]-2-2-2-2-2-2-2-0-2-2-2-0-2-0-2---|
g]-0-0-0-0-0-0-0-0-0-0-0-0-0-0-0---|
d]-2-2-2-2-2-2-2-2-2-2-2-2-2-2-2---|
a]-0-0-0-0-0-0-0-0-0-0-0-0-0-0-0---|
d]---------------------------------|

d]-0-0-0-0-0-0-0-------------------|
a]-3-3-3-3-5-7-9-------------------|
g]-0-0-0-0-0-0-0-------------------|
d]-3-3-3-3-5-7-9-------------------|
a]---------------------------------|
d]-3-3-3-3-5-7-9-------------------|

Outro
(For the 2nd guitar pick out notes from the chords below)

d]-0--0--0--0--0--0--0--0--0-------|
a]-10-10-10-10-10-10-10-10-10------|
g]-0--0--0--0--0--0--0--0--0-------|
d]-10-10-10-10-10-10-10-10-10------|
a]---------------------------------|
d]-10-10-10-10-10-10-10-10-10------|

d]-0--0--0--0--0--0--0--0--0-------|
a]-10-10-10-10-10-10-10-10-10------|
g]-0--0--0--0--0--0--0--0--0-------|
d]-10-10-10-10-10-10-10-10-10------|
a]---------------------------------|
d]-9--9--9--9--9--9--9--9--9-------|

d]-0-0-0-0-0-0-0-0-0-0-0-0-0-0-0--|
a]-3-3-3-3-3-3-3-3-3-3-3-3-7-7-9--|
g]-0-0-0-0-0-0-0-0-0-0-0-0-0-0-0--|
d]-3-3-3-3-3-3-3-3-3-3-3-3-7-7-9--|
a]--------------------------------|
d]-3-3-3-3-3-3-3-3-3-3-3-3-7-7-9--|

Repeat x6

End

d]-0--------|
a]-10-------|
g]-0--------|
d]-10-------|
a]----------|
d]-10-------|
Tap to rate this tab
# A B C D E F G H I J K L M N O P Q R S T U V W X Y Z