Song name
# A B C D E F G H I J K L M N O P Q R S T U V W X Y Z

Biffy Clyro - Cloud Of Stink tab

-------------------------------------------------------------------------------
			     Cloud of Stink - Biffy Clyro
-------------------------------------------------------------------------------
Great new song off Biffy's great new album, 'Only Revolutions'.
This is actually my first submitted tab, have figured out tracks before but never 
been bothered to submit a tab; if it's poor, tell me!

Tabbed by: stoxsie99
Email: stoxsie99@hotmail.co.uk

Tuning: Drop D Flat (i.e. Drop D tuning then tune all strings half a step down). 
(Db, Ab, Db, Gb, Bb, eb)

INTRO (0:04):   
                                                                      (x4)
eb|------------------------------------------------------------------------|
Bb|------------------------------------------------------------------------|
Gb|---------------5------------5----------------5--------------------------|
Db|--0----0h3p0---x----0h3p0---x---0----0h3p0---x----0h3p0---7777----------|
Ab|--0----0h3p0---3----0h3p0---3---0----0h3p0---3----0h3p0---7777----------|
Db|--0----0h3p0--------0h3p0-------0----0h3p0--------0h3p0---7777----------|

VERSE 1  (0:24):

eb|------------------------------------------------------------------------|
Bb|---5-5-5-5-5-5-5-5-5-5-5-5--6--6--6--6----------------------------------|
Gb|--9-9-9-9-9-9-9-9-9-9-9-9-10-10-10-10-----------------------------------|
Db|------------------------------------------------------------------------|
Ab|------------------------------------------------------------------------|
Db|------------------------------------------------------------------------|

eb|------------------------------------------------------------------------|
Bb|----8--8--8--8--8--8--8--8--8--8--8--8--8--8-8--------------------------|
Gb|--12-12-12-12-12-12-12-12-12-12-12-12-12-12--12-------------------------|
Db|------------------------------------------------------------------------|
Ab|------------------------------------------------------------------------|
Db|------------------------------------------------------------------------|

CHORUS  (0:34):
                                                    (x2)  
eb|------------------------------------------------------------------------|
Bb|------------------------------------------------------------------------|
Gb|------------------------------------------------------------------------|
Db|--12121212-1212121212-12121212----101010-7-77777-7777-------------------|
Ab|--12121212-1212121212-12121212----101010-7-77777-7777-------------------|
Db|--12121212-1212121212-12121212----101010-7-77777-7777-------------------|

eb|------------------------------------------------------------------------|
Bb|------------------------------------------------------------------------|
Gb|------------------------------------------------------------------------|
Db|--3333-33333-3333-101010-7-77777-7777----3333-33333-3333-5555-55555-5555|
Ab|--3333-33333-3333-101010-7-77777-7777----3333-33333-3333-5555-55555-5555|
Db|--3333-33333-3333-101010-7-77777-7777----3333-33333-3333-5555-55555-5555|

BRIDGE  (0:54)
                                                              (x2)
eb|------------------------------------------------------------------------|
Bb|------------------------------------------------------------------------|
Gb|---------------5------------5----------------5--------------------------|
Db|--0----0h3p0---x----0h3p0---x---0----0h3p0---x----0h3p0---7777----------|
Ab|--0----0h3p0---3----0h3p0---3---0----0h3p0---3----0h3p0---7777----------|
Db|--0----0h3p0--------0h3p0-------0----0h3p0--------0h3p0---7777----------|

VERSE 2  (1:03)

eb|------------------------------------------------------------------------|
Bb|---5-5-5-5-5-5-5-5-5-5-5-5--6--6--6--6----------------------------------|
Gb|--9-9-9-9-9-9-9-9-9-9-9-9-10-10-10-10-----------------------------------|
Db|------------------------------------------------------------------------|
Ab|------------------------------------------------------------------------|
Db|------------------------------------------------------------------------|

eb|------------------------------------------------------------------------|
Bb|----8--8--8--8--8--8--8--8--8--8--8--8--9--10-10------------------------|
Gb|--12-12-12-12-12-12-12-12-12-12-12-12-13-14-14--------------------------|
Db|------------------------------------------------------------------------|
Ab|------------------------------------------------------------------------|
Db|------------------------------------------------------------------------|

CHORUS  (1:14)
                                                     (x2)
eb|------------------------------------------------------------------------|
Bb|------------------------------------------------------------------------|
Gb|------------------------------------------------------------------------|
Db|--12121212-1212121212-12121212----101010-7-77777-7777-------------------|
Ab|--12121212-1212121212-12121212----101010-7-77777-7777-------------------|
Db|--12121212-1212121212-12121212----101010-7-77777-7777-------------------|

eb|------------------------------------------------------------------------|
Bb|------------------------------------------------------------------------|
Gb|------------------------------------------------------------------------|
Db|--3333-33333-3333-101010-7-77777-7777----3333-33333-3333-5555-55555-5555|
Ab|--3333-33333-3333-101010-7-77777-7777----3333-33333-3333-5555-55555-5555|
Db|--3333-33333-3333-101010-7-77777-7777----3333-33333-3333-5555-55555-5555|

Verse 3  (1:33)

eb|------------------------------------------------------------------------|
Bb|------------------------------------------------------------------------|
Gb|--5------/-7-\----------------------------------------------------------|
Db|--5------/-7-\----7-[77]7-[77]7-[77]7-[77]7-[77]7-[77]7-[77]7----------|
Ab|--3------/-5-\----7-[77]7-[77]7-[77]7-[77]7-[77]7-[77]7-[77]7----------|
Db|------------------7-[77]7-[77]7-[77]7-[77]7-[77]7-[77]7-[77]7-----------|
                       pm     pm    pm    pm    pm    pm    pm      
eb|------------------------------------------------------------------------|
Bb|------------------------------------------------------------------------|
Gb|--5-55555-55555-55--7-77777-77777-77------------------------------------|
Db|--5-55555-55555-55--7-77777-77777-77--3-33333-33333-33-3-33333-33333-33-|
Ab|--3-33333-33333-33--5-55555-55555-55--3-33333-33333-33-3-33333-33333-33-|
Db|--------------------------------------3-33333-33333-33-3-33333-33333-33-|

eb|------------------------------------------------------------------------|
Bb|------------------------------------------------------------------------|
Gb|------------------------------------------------------(repeat this and--|
Db|--7-77777-77777-77--10-1010101010-1010101010-1010------phrase below x2)-|
Ab|--7-77777-77777-77--10-1010101010-1010101010-1010-----------------------|
Db|--7-77777-77777-77--10-1010101010-1010101010-1010-----------------------|
                                                                        (x2)
eb|------------------------------------------------------------------------|
Bb|------------------------------------------------------------------------|
Gb|------------------------------------------------------------------------|
Db|--3-33333-33333-33-3-33333-33333-33-------------------------------------|
Ab|--3-33333-33333-33-3-33333-33333-33-------------------------------------|
Db|--3-33333-33333-33-3-33333-33333-33-------------------------------------|

OUTRO  (2:13)
                                                              (x2)  
eb|------------------------------------------------------------------------|
Bb|------------------------------------------------------------------------|
Gb|---------------5------------5----------------5---------------------(x17)|
Db|--0----0h3p0---x----0h3p0---x---0----0h3p0---x----0h3p0---7777--7777----|
Ab|--0----0h3p0---3----0h3p0---3---0----0h3p0---3----0h3p0---7777--7777----|
Db|--0----0h3p0--------0h3p0-------0----0h3p0--------0h3p0---7777--7777----|

eb|------------------------------------------------------------------------|
Bb|------------------------------------------------------------------------|
Gb|------------------------------------------------------------------------|
Db|--0--000-0--000-0-0--000-0-00[00000]--0--000-0--000-0-0--000-0-00-------|
Ab|--0--000-0--000-0-0--000-0-00[00000]--0--000-0--000-0-0--000-0-00-------|
Db|--0--000-0--000-0-0--000-0-00[00000]--0--000-0--000-0-0--000-0-00-------|
                                  pm
eb|------------------------------------------------------------------------|
Bb|------------------------------------------------------------------------|
Gb|------------------------------------------------------------------------|
Db|--[00000000]--0--000-0--000-0-0--000-0-00[000000000]--------------------|
Ab|--[00000000]--0--000-0--000-0-0--000-0-00[000000000]--------------------|
Db|--[00000000]--0--000-0--000-0-0--000-0-00[000000000]--------------------|
         pm                                     pm
eb|------------------------------------------------------------------------|
Bb|------------------------------------------------------------------------|
Gb|------------------------------------------------------------------------|
Db|--0--000-0--000-0-0--000-0-000000---------------------------------------|
Ab|--0--000-0--000-0-0--000-0-000000---------------------------------------|
Db|--0--000-0--000-0-0--000-0-000000---------------------------------------|









| /  slide up
| \  slide down
| h  hammer-on
| p  pull-off
| ~  vibrato
| +  harmonic
| x  Mute note
===============================================================================
Tap to rate this tab
# A B C D E F G H I J K L M N O P Q R S T U V W X Y Z