Song name
# A B C D E F G H I J K L M N O P Q R S T U V W X Y Z

Biffy Clyro - Many Of Horror tab

This is my first ever tab, and as best as I can tell this is 95% complete. There's a
"solo" over the top of the bridge that I didn't get down, but all the parts before it turns
powerchords are as close to the record as I could get them. I've not seen a tab that's 
close so far, this is pretty good.


Feedback appreciated.


Tuning: Half a step down, drop D
D#

Intro/Verse (Clean)

Eb|-----------------------------------------------|
Bb|-----------------------------------------------|
Gb|-7-9/11--11----2-4/6-6---12-11-7-----12-11-6---| X 2
Db|-0-0/0---0-----0-0/0-0---0--0--0-----0--0--0---|
Ab|-----------------------------------------------|
Db|-9-10/12-12----4-5/7-7---12-12-9-----12-12-5---|

Pre-Chorus (Clean)

Eb|---------------------------|
Bb|---------------------------|
Gb|-7-9/11-4----2-2/7-4----6--|
Db|-0-0/0--0----0-0/0-0----0--|
Ab|---------------------------|
Db|-9-9/12-5----4-4/9-5----7--|

Chorus 1 (Clean)

Eb|--------------------------------|
Bb|--------------------------------|
Gb|-12-11-9-11-----12-11-9-7-4-----| X
Db|-0--0--0-0------0--0--0-0-0-----| 2
Ab|--------------------------------|
Db|-12-12-9-12-----12-12-9-9-5-----|

Verse 2 (Clean)

Eb|----------------------------------------------|
Bb|----------------------------------------------|
Gb|-7-9/11-11----2-4/6-6---12-11-7-----12-11-6---|  X 1
Db|-0-0/0--0-----0-0/0-0---0--0--0-----0--0--0---|
Ab|----------------------------------------------|
Db|-9-10/12-12---4-5/7-7---12-12-9-----12-12-5---|

Pre-Chorus (Overdriven)

Eb|---------------------------|
Bb|---------------------------|
Gb|-7-9/11-4----2-2/7-4----6--|
Db|-0-0/0--0----0-0/0-0----0--|
Ab|---------------------------|
Db|-9-9/12-5----4-4/9-5----7--|

Chorus 2 (Overdriven)

Eb|---------------------------------------------------|
Bb|---------------------------------------------------|
Gb|---------------------------------------------------|  X 2
Db|-121212121212121212121212121212-99999999-55555555--|
Ab|-121212121212121212121212121212-99999999-55555555--|
Db|-121212121212121212121212121212-99999999-55555555--|


Bridge (Overdriven)

Db|------------------------------------------|
Bb|------------------------------------------|
Gb|------------------------------------------|
Db|-777777777777-99999-555555/777777777777---|  X1
Ab|-777777777777-99999-555555/777777777777---|
Db|-777777777777-99999-555555/777777777777---|

Eb|-------------------------------------------------|            }
Bb|-------------------------------------------------|            }
Gb|-------------------------------------------------|            }
Db|-9-11-12---121212121212121212121212121212-4-5----|            }
Ab|-9-11-12---121212121212121212121212121212-4-5----|            }
Db|-9-11-12---121212121212121212121212121212-4-5----|            }
                                                                 }   X2
                                                                 }
Eb|--------------------------------------------------------|     }
Bb|--------------------------------------------------------|     }
Gb|----------------------------------12-11-----------------|     }
Db|-777777777777---9-11-999999999999-12-11-777777777777----|     }
Ab|-777777777777---9-11-999999999999-10-9--777777777777----|     }
Db|-777777777777---9-11-999999999999-------777777777777----|     }

Eb|--------------------------------------------------------|
Bb|--------------------------------------------------------|
Gb|--------------------------------------------------------|  x1
Db|-9-11-12-555555555555---9-11-12-5555555555--7777777777--|
Ab|-9-11-12-555555555555---9-11-12-5555555555--7777777777--|
Db|-9-11-12-555555555555---9-11-12-5555555555--7777777777--|

Chorus/Outro (Overdriven)

Eb|---------------------------------------------------|
Bb|---------------------------------------------------|
Gb|---------------------------------------------------|  x 1
Db|-121212121212121212121212121212-99999999-55555555--|
Ab|-121212121212121212121212121212-99999999-55555555--|
Db|-121212121212121212121212121212-99999999-55555555--|

Eb|------------------------------------------------------|
Bb|------------------------------------------------------|
Gb|------------------------------------------------------|  x1
Db|-121212121212121212121212121212-99999999-5------------|
Ab|-121212121212121212121212121212-99999999-5------------|
Db|-121212121212121212121212121212-99999999-5------------|
					    Let Ring ----

Carick
Tap to rate this tab
# A B C D E F G H I J K L M N O P Q R S T U V W X Y Z