Song name
# A B C D E F G H I J K L M N O P Q R S T U V W X Y Z

Biffy Clyro - Many Of Horror tab

hey first tab and hopefully its right :)
this is in standard tuning but its better in D sharp.
At the start of the song Simon uses his fingers to pluck the strings and then switches 
using a plectrum about halfway through the song.

Verse

e|-------------------------------------------------|
b|-------------------------------------------------|
g|--6\-8\-10-----1\-3\-5-----11-10-6-----11-10-5---|
d|-------------------------------------------------|  x2
a|-------------------------------------------------|
E|--6\-8\--9-----1\-2\-4-----11--9-6-----11--9-4---|


Pre Chorus

e|-----------------------------|
b|-----------------------------|
g|--6--8\-10/-3-----1/-6\-3--5-|
d|-----------------------------|
a|-----------------------------|
E|--6--8\--9/-2-----1/-6\-2--4-|


Chorus

e|------------------------|
b|------------------------|
g|--11-11-10-10-8-8-10-10-|
d|------------------------|
a|------------------------|
E|--11-11--9--9-8-8--9--9-|

e|------------------------------|
b|------------------------------|
g|--11-11-10-10-8-8-6-6-3-3-----|
d|------------------------------|    x2
a|------------------------------|
E|--11-11--9--9-8-8-6-6-2-2-----|


Bridge

e|-------------------------------------------------------------|
b|-------------------------------------------------------------|
g|-5-----6---3--5-6-8-10-----1-3-5-----11-10-6-----11-10-5-----|
d|-------------------------------------------------------------|
a|-------------------------------------------------------------|
E|-4-----6---2--4-6-8--9-----1-2-4-----11--9-6-----11--9-4-----|


Verse
Pre chorus
Chorus
Verse
Pre chorus
Chorus
Bridge
Verse
Pre chorus
Chorus

enjoy :)
Tap to rate this tab
# A B C D E F G H I J K L M N O P Q R S T U V W X Y Z