Song name
# A B C D E F G H I J K L M N O P Q R S T U V W X Y Z

Biffy Clyro - Little Soldiers tab

hey this is my 2nd tab i cant find out the whole song sorry but its most of it

this is a slow song

into 

|----------------------------------|
|---4-0---0---0---0-5-4-5-4-4-0--0-|
|-------0---4---4---------------0--|
|----------------------------------| x2
|----------------------------------|
|----------------------------------|

|--7----7---|
|----5----5-|
|-----------|
|-----------|
|-----------|
|-----------|

verse

|--------------------------------|
|--------------------------------|
|--7-5-4-------4-7-5-4-------4---|
|--------7-5-7---------7-5-7-----| x2 for evey verse 
|------------------------------7-|
|--------------------------------|

pre-chours and chours

sorry i dnt know this but ill find it out soon as possible

hey can you please email me if you know the chours thank you and rate this tab please!!
Tap to rate this tab
# A B C D E F G H I J K L M N O P Q R S T U V W X Y Z