Song name
# A B C D E F G H I J K L M N O P Q R S T U V W X Y Z

Biffy Clyro - Liberate The Illiterate tab

hey please enjoy this tab ;)

Intro
e|------------------------------|
B|---7--7-7-7--7--7-7-7--8--8---|
G|---5--5-5-5--5--5-5-5--7--7---|
D|------------------------------|
A|---5--5-5-5--6--6-6-6--7--7---|
D|------------------------------|

e|------------------------------|
B|-------7--7------7--7-----8---|
G|-----5--5------5--5-------7---|
D|------------------------------| x3
A|---5-------6-6--------7-7-----|
D|------------------------------|

e|------------------------|
B|------------------------|
G|-16-16---16-16-16--12---|
D|--x--x----x--x--x---x---|
A|-14-14---14-14-14--10---|
D|------------------------|

Verse: x3

e|-------------------------------------------------|
B|-------------------------------------------------|
G|-16-16---16-16-16--12--11-11--11-11-11--12--12-12|
D|--x--x----x--x--x---x---x--x---x--x--x---x---x--x|
A|-14-14---14-14-14--10---9--9---9--9--9--10--10-10|
D|-------------------------------------------------|

e|-------------------------------------------------------------------------|
B|-------------------------------------------------------------------------|
G|-12-12-12---14--16-16----16-16-16--14-12---------------------------------|
D|--x--x--x----x---x--x-----x--x--x---x--x---------------------------------|
A|-10-10-10---12--14-14----14-14-14--12-10---------------------------------|
D|-------------------------------------------------------------------------|

Pre-Bridge

e|-------------------------------|
B|-------------------------------|
G|---9--7--2---------------------|
D|----------0-----2-2-2-2-2--0---|
A|---7--5----0----2-2-2-2-2--0---|
D|------------0---2-2-2-2-2--0---|

e|-------------------------------------------------------|
B|-------------------------------------------------------|
G|---9--7--2---------------------------------------------|
D|----------0-----2-0-2--2-0-2--2-0--2-0-2--2-0-2--2-0---|
A|---7--5----0----2-0-2--2-0-2--2-0----------------------|
D|------------0---2-0-2--2-0-2--2-0----------------------|

e|-----------------------------------------------|
B|-----------------------------------------------|
G|-----------------------------------------------|
D|---9-9-x-9-9-9-7--------9-7-9--9-7-9--9-7------|
A|---7-7-x-7-7-7-5-------------------------------|
D|-----------------------------------------------|

Bridge

e|---------------------------------------------|
B|---------------------------------------------|
G|---------------------------------------------|
D|---2-0-2--2-0-2--6--0--2-0-2--2-0-2--6-7-0---|
A|---2-0-2--2-0-2--6--0--2-0-2--2-0-2--6-7-0---|
D|---2-0-2--2-0-2--6--0--2-0-2--2-0-2--6-7-0---|

e|------------------------------------------------------------|
B|------------------------------------------------------------|
G|------------------------------------------------------------|
D|---2-0-2--2-0-2--6--7--9--0-0-0-0-0-0-0-0-0-0-0-0-0-0-0-0---|
A|---2-0-2--2-0-2--6--7--9--0-0-0-0-0-0-0-0-0-0-0-0-0-0-0-0---|
D|---2-0-2--2-0-2--6--7--9--0-0-0-0-0-0-0-0-0-0-0-0-0-0-0-0---|


e|--------------7--9-9-9-9-7---7--9-9-9-9-7--------------------------------|
B|--------------x--x-x-x-x-x---x--x-x-x-x-x--------------------------------|
G|--------------4--6-6-6-6-4---4--6-6-6-6-4--------------------------------|
D|-4-4-4-4-4-4-----------------------------------4-4-4-4-4-4-4-------------|
A|-4-4-4-4-4-4-----------------------------------4-4-4-4-4-4-4-------------|
D|-4-4-4-4-4-4-----------------------------------4-4-4-4-4-4-4-------------|

Chorus

e|-------------------------------------------------------------------------|
B|-------------------------------------------------------------------------|
G|-------------------------------------------------------------------------|
D|-0---2----4-2-4-xx-4-2-4---x-x----0---2----4-2-4-xx-4-2-4---x-x----------|
A|-0---2----4-2-4-xx-4-2-4---x-x----0---2----4-2-4-xx-4-2-4---x-x----------|
D|-0---2----4-2-4-xx-4-2-4---x-x----0---2----4-2-4-xx-4-2-4---x-x----------|

e|-------------------------------------------------------------------------|
B|-------------------------------------------------------------------------|
G|-------------------------------------------------------------------------|
D|-0-----4-------0-----4-------0-----4---2---0-----------------------------|
A|-0-----4-------0-----4-------0-----4---2---0-----------------------------|
D|-0-----4-------0-----4-------0-----4---2---0-----------------------------|

pre-verse

e|------------------------------|
B|-------7--7------7--7-----8---|
G|-----5--5------5--5-------7---|
D|------------------------------| x2
A|---5-------6-6--------7-7-----|
D|------------------------------|

e|------------------------|
B|------------------------|
G|-16-16---16-16-16--12---|
D|--x--x----x--x--x---x---|
A|-14-14---14-14-14--10---|
D|------------------------|

Verse: x2

e|-------------------------------------------------|
B|-------------------------------------------------|
G|-16-16---16-16-16--12--11-11--11-11-11--12--12-12|
D|--x--x----x--x--x---x---x--x---x--x--x---x---x--x|
A|-14-14---14-14-14--10---9--9---9--9--9--10--10-10|
D|-------------------------------------------------|

e|-------------------------------------------------------------------------|
B|-------------------------------------------------------------------------|
G|-12-12-12---14--16-16----16-16-16--14-12---------------------------------|
D|--x--x--x----x---x--x-----x--x--x---x--x---------------------------------|
A|-10-10-10---12--14-14----14-14-14--12-10---------------------------------|
D|-------------------------------------------------------------------------|

Pre-Bridge

e|-------------------------------|
B|-------------------------------|
G|---9--7--2---------------------|
D|----------0-----2-2-2-2-2--0---|
A|---7--5----0----2-2-2-2-2--0---|
D|------------0---2-2-2-2-2--0---|

e|-------------------------------------------------------|
B|-------------------------------------------------------|
G|---9--7--2---------------------------------------------|
D|----------0-----2-0-2--2-0-2--2-0--2-0-2--2-0-2--2-0---|
A|---7--5----0----2-0-2--2-0-2--2-0----------------------|
D|------------0---2-0-2--2-0-2--2-0----------------------|

e|-----------------------------------------------|
B|-----------------------------------------------|
G|-----------------------------------------------|
D|---9-9-x-9-9-9-7--------9-7-9--9-7-9--9-7------|
A|---7-7-x-7-7-7-5-------------------------------|
D|-----------------------------------------------|

Pre-Chorus (not sure about this bit and how many times played)

e|-----------------------|
B|-----------------------|
G|-----------------------|
D|---9-9-9-9-9--9-9--11--|
A|---7-7-7-7-7--7-7--9---|
D|-----------------------|

e|--------------------------------|
B|--------------------------------|
G|-131313131313131313131313131413-|
D|--------------------------------|
A|-111111111111111111111111111211-|
D|--------------------------------|

Chorus

e|-------------------------------------------------------------------------|
B|-------------------------------------------------------------------------|
G|-------------------------------------------------------------------------|
D|-0---2----4-2-4-xx-4-2-4---x-x----0---2----4-2-4-xx-4-2-4---x-x----------|
A|-0---2----4-2-4-xx-4-2-4---x-x----0---2----4-2-4-xx-4-2-4---x-x----------|
D|-0---2----4-2-4-xx-4-2-4---x-x----0---2----4-2-4-xx-4-2-4---x-x----------|

e|-------------------------------------------------------------------------|
B|-------------------------------------------------------------------------|
G|-------------------------------------------------------------------------|
D|-0-----4-------0-----4-------0-----4---2---0-----------------------------|
A|-0-----4-------0-----4-------0-----4---2---0-----------------------------|
D|-0-----4-------0-----4-------0-----4---2---0-----------------------------|

after chorus quiet verse thing

e|-------------------------------------------------------------------------|
B|-------------------------------------------------------------------------|
G|-------------------------------------------------------------------------|
D|-------------------------------------------------------------------------|
A|-0-0-------------7-7--0---12-12-12---------------------------------------|
D|------3-3-4--0-----------------------------------------------------------|


build up palm muted

e|-------------------------------------------------------------------------|
B|-------------------------------------------------------------------------|
G|-------------------------------------------------------------------------|
D|-------------------------------------------------------------------------|
A|-------------------------------------------------------------------------|
D|-7-7-7-7-7-7-7-7---3-3-3-3-3-3-3-3---4-4-4-4-4-4-4-4---3-3-3-3-3-3-3-3---|

e|-------------------------------------------------------------------------|
B|-------------------------------------------------------------------------|
G|-------------------------------------------------------------------------|
D|-------------------------------------------------------------------------|
A|-------------------------------------------------------------------------|
D|-6-6-6-6-6-6-6-6---7-7-7-7-7-7-7-7---------------------------------------|

outro (play about 2 or 3 times not sure)

e|-----------------------------------------|
B|-----------------------------------------|
G|-----------------------------------------|
D|--7---------0--------7--------0----------|
A|--7-(x8)----0-(x8)---7-(x8)---0-(x8)-----|
D|--7---------0--------7--------0----------|

(play this till the end of song about 4 times not to sure about how many time)

e|-5-5-5-4-5---4-4-4-5-2---------------------------------------------------|
B|-5-5-5-5-5---5-5-5-5-5---------------------------------------------------|
G|-------------------------------------------------------------------------|
D|-------------------------------------------------------------------------|
A|-------------------------------------------------------------------------|
D|-------------------------------------------------------------------------|

thank you for playing this please rate

Thank you!!
Tap to rate this tab
# A B C D E F G H I J K L M N O P Q R S T U V W X Y Z