Song name
# A B C D E F G H I J K L M N O P Q R S T U V W X Y Z

Biffy Clyro - 9 15ths tab

|-----------------------------------------------------------------------------------------------|
|---------6---------------6---------------------------------------------------------------------|
|-----------------------------------------2--------------3---------------3---------------2------|
|-7---7-------7---7---7-------7-------0----------------------------------------------0----------|
|---5---5---5---5---5---5---5---5---4---4------------5-------5---5---5-------5---5--------------|
|--------------------------------------------------5---5---5---5---5---5---5---5---0---0--------|
Repeat's until Chords are played . . .

|--------------------------------------------------------------|
|-18-\-10-/-15-/-17--------------------------------------------|
|------------------------------15-\-12-/-19-\-10-/-14----------|
|--------------------------------------------------------------|
|--------------------------------------------------------------|
|--------------------------------------------------------------|
Just thought i'd throw the violin part before he starts singing in there. It was easy to 
out XD

Sorry i didn't scale it to the correct time. But if you listen to the track you'll get 
=]

Please rate and give feedback. First tab so i'd accept criticism XD

Thanks, Crahinggates =]
Tap to rate this tab
# A B C D E F G H I J K L M N O P Q R S T U V W X Y Z