Song name
# A B C D E F G H I J K L M N O P Q R S T U V W X Y Z

Biffy Clyro - Hiya tab

			     Hiya - Biffy Clyro
-------------------------------------------------------------------------------
Tabbed by: BarnesyMcBarnes

Form the Bubbles EP, havnt put the solo in but i will work on it and put it in later.

Tuning: Drop D

Into
e|----------------------------------------------------------------|
B|----------------------------------------------------------------|
G|----------------------------------------------------------------|
D|-5-7-9-9\---7-7-7-----7-9-9-9-9-9-9-9-9-9-9-9-9-9---------------|
A|-5-7-9-9\---7-7-7-----7-9-9-9-9-9-9-9-9-9-9-9-9-9-----x2--------|
E|-5-7-9-9\---7-7-7-----7-9-9-9-9-9-9-9-9-9-9-9-9-9---------------|

Verse
e|-----------------------------------------|
B|-----------------------------------------|
G|-7---------------------------------------|
D|-7--x25-9-----------repeat twice---------|
A|-5------9--x25---------------------------|
E|--------9--------------------------------|

Pre chorus
e|-------------------------------------------------|
B|-------------------------------------------------|
G|-------------------------------------------------|
D|-5----7-----9-----7------------------------------|
A|-5-x8-7-x8--9-x8--7-x8----repeat twice-----------|
E|-5----7-----9-----7------------------------------|

Chorus
e|---------------------------------------------------------------------------|
B|---------------------------------------------------------------------------|
G|-7----7-7-7-7----7----7-7-7-7-----11---11-11-11-11---11---11-11-11-11------|
D|-5----5-5-5-5----5----5-5-5-5-----9----9--9--9--9----9----9--9--9--9-------| 
A|-5----5-5-5-5----5----5-5-5-5-----9----9--9--9--9----9----9--9--9--9-------|
E|-5----5-5-5-5----5----5-5-5-5-----9----9--9--9--9----9----9--9--9--9-------|
                         Repeat 3 times

e|--------------------------------------|
B|--------------------------------------|
G|-7----11---9--------------------------|
D|-5----9----7--------7-9-9\------------|
A|-5----9----7--------7-9-9\------------|
E|-5----9----7--------7-9-9\------------|



after solo- very light strum
e|-------------------------------------------------|
B|-------------------------------------------------|
G|-7----11----9-----------7----11----9-------------|
D|-5----9-----7---x3------5----9-----7-------------|
A|-5----9-----7-----------5-x8-9--x8-7-x8----------|
E|-5----9-----7-----------5----9-----7-------------|
                       pm--------------|

Outro   
e|-----------------------------------------|
B|-----------------------------------------|
G|----------7-----11-----------------------|
D|-5-7-7\---5-----9------------------------|
A|-5-7-7\---5-x8--9--x8--repeat twice------|
E|-5-7-7\---5-----9------------------------|

e|---------------------------------------------------------|
B|---------------------------------------------------------|
G|---------7-----11-----7----11---9----7----11---9---------|
D|-5-7-7\--5-----9------5----9----7----5----9----7---------|
A|-5-7-7\--5-x8--9--x8--5----9----7----5----9----7---------|
E|-5-7-7\--5-----9------5----9----7----5----9----7---------|


Hiya

Intro
Verse
Pre Chorus
Chorus
Verse
Pre Chorus
Chorus
Solo (not in tab)
After solo
Outro

Lyrics:

Verse 1
I'm gonna leave you,
unless we fly together and
can you feel my heart stop,
can you feel my heart stop baby.
Your gonna change me,
lets leave town together and
can you feel my heart stop,
can you feel my heart stop.

Pre Chorus
Cos i am going to save the world for you,
so i wont have to tell the truth.

Chorus
We can fly together and,
leave this town,
jump higher than we ever have,
don't look down,
look at the starless night,
we can shine forever and,
won't you please take my hand.


Verse 2
I will releave you,
if we climb together and
can you feel my dick slap,
can you feel my dick slap baby.
Im going to change you,
we can frown together and,
can you feel my heart stop,
can you feel my heart stop.

After solo
We can fly together and,
leave this town,
jump higher than we ever have,
don't look down,
look at the starless night,
we can shine forever and,
won't you please take my hand.

outro
We can fly together and,
Jump higher than we ever have,
look at the starless night,
we can shine forever and,
won't you please take my hand,
won't you please take my hand.


************************************

| /   slide up
| \   slide down
| h   hammer-on
| p   pull-off
| ~   vibrato
| +   harmonic
| x   Mute note
| b   Bend
| pb  Pre-bend
| br  Bend release
| pbr Pre-bend release
| brb Bend release bend

Tap to rate this tab
 
# A B C D E F G H I J K L M N O P Q R S T U V W X Y Z