Song name
# A B C D E F G H I J K L M N O P Q R S T U V W X Y Z

Biffy Clyro - Many Of Horror tab

Verse 

e|----------------------------------------------|
B|----------------------------------------------|
G|-6-8-10-----1-3-5-----11-10-6-----11-10-5-----| X2
D|-0-0-0------0-0-0-----0--0--0-----0--0--0-----| 
A|----------------------------------------------|
E|-6-8-9------1-2-4-----11-9--6-----11-9--4-----|

Pre-Chorus 

e|------------------------------|
B|------------------------------|
G|-6-8/10\3-----1/6\3-----5-----|
D|-0-0/0-\0-----0/0\0-----0-----|
A|------------------------------|
E|-6-8/9-\2-----1/6\2-----4-----|

Chorus 

e|--------------------------------|
B|--------------------------------|
G|-11-10-8-10-----11-10-8-6-3-----| X2
D|-0--0--0-0------0--0--0-0-0-----| 
A|--------------------------------|
E|-11-9--8-9------11-9--8-6-2-----|

Verse 2

e|----------------------------------------------|
B|----------------------------------------------|
G|-6-8-10-----1-3-5-----11-10-6-----11-10-5-----| 
D|-0-0-0------0-0-0-----0--0--0-----0--0--0-----| 
A|----------------------------------------------|
E|-6-8-9------1-2-4-----11-9--6-----11-9--4-----|

Pre-Chorus 

e|------------------------------|
B|------------------------------|
G|-6-8/10\3-----1/6\3-----5-----|
D|-0-0/0-\0-----0/0\0-----0-----|
A|------------------------------|
E|-6-8/9-\2-----1/6\2-----4-----|

Chorus 

e|--------------------------------|
B|--------------------------------|
G|-11-10-8-10-----11-10-8-6-3-----| X2
D|-0--0--0-0------0--0--0-0-0-----| 
A|--------------------------------|
E|-11-9--8-9------11-9--8-6-2-----|


guitar 2

e|--------|      e|--------|     e|--------|       }
B|-7------|      B|--3-----|     B|--------|       }
G|-7------| X16  G|--4-----| X8  G|--4-----| X8    } X2
D|-7------|      D|--4-----|     D|--5-----|       }
A|-5------|      A|--2-----|     A|--5-----|       }
E|--------|      E|--------|     E|--3-----|       }


Bridge 

e|-------------------------------------------------------------|
B|-------------------------------------------------------------|
G|-5-----6---3--5-6-8-10-----1-3-5-----11-10-6-----11-10-5-----|
D|-0-----0---0--0-0-0-0------0-0-0-----0--0--0-----0--0--0-----|
A|-------------------------------------------------------------|
E|-4-----6---2--4-6-8-9------1-2-4-----11-9--6-----11-9--4-----|

Instumental 

e|----------------------------------------------|
B|----------------------------------------------|
G|-6-8-10-----1-3-5-----11-10-6-----11-10-5-----| 
D|-0-0-0------0-0-0-----0--0--0-----0--0--0-----| 
A|----------------------------------------------|
E|-6-8-9------1-2-4-----11-9--6-----11-9--4-----|

Pre-Chorus 

e|------------------------------|
B|------------------------------|
G|-6-8/10\3-----1/6\3-----5-----|
D|-0-0/0-\0-----0/0\0-----0-----|
A|------------------------------|
E|-6-8/9-\2-----1/6\2-----4-----|

Chorus 

e|--------------------------------|
B|--------------------------------|
G|-11-10-8-10-----11-10-8-6-3-----| X2
D|-0--0--0-0------0--0--0-0-0-----| 
A|--------------------------------|
E|-11-9--8-9------11-9--8-6-2-----|


guitar 2

e|--------|      e|--------|     e|--------|       }
B|-7------|      B|--3-----|     B|--------|       }
G|-7------| X16  G|--4-----| X8  G|--4-----| X8    } X2
D|-7------|      D|--4-----|     D|--5-----|       }
A|-5------|      A|--2-----|     A|--5-----|       }
E|--------|      E|--------|     E|--3-----|       }

thanks for playing!! please rate 

MON THE BIFF!!!
Tap to rate this tab
 
# A B C D E F G H I J K L M N O P Q R S T U V W X Y Z