Song name
# A B C D E F G H I J K L M N O P Q R S T U V W X Y Z

Biffy Clyro - Sad Sad Songs tab

i only done the intro a little solo riff thing and a bit more

e|-----------------------------------|
B|-----------------------------------|
G|---------------------5-------------|
D|---5------------2----5----5--------|
A|---5------------2----3----5--------|
E|---3------------0---------3--------|
these 4 chourds are play in the verse but you keep play the root note

the riffs in the song

e|----------3------|
B|------0----------|
G|--0h2---0--------|
D|-----------------|
A|-----------------|
E|-----------------|

e|----------3------|
B|-----------------|
G|--0h2h3p0--------|
D|-----------------|
A|-----------------|
E|-----------------|

thanks just play around with this and you should find the song out soon when i find out 
ill update it i just though you guys might want it so yer have fun1

THANKS

MON THE BIFF!!!
Tap to rate this tab
# A B C D E F G H I J K L M N O P Q R S T U V W X Y Z