Biffy Clyro - The Captain Acoustic tab

e|--16-15-14-13-12-11-0-0---------12--0-0--12-0-0--12-0-0--3-----------------|
B|---------------------------------------------------------------------------|
G|---------------------------------------------------------------------------|
D|---------------------------------------------------------------------------|
A|---------------------------------------------------------------------------|
E|---------------------------------------------------------------------------|


e|--12--0-0--12--0-0--12-0-0--15-14-13-12-----12--0-0--12-0-0--12-0-0--3-----|
B|---------------------------------------------------------------------------|
G|---------------------------------------------------------------------------|
D|---------------------------------------------------------------------------|
A|---------------------------------------------------------------------------|
E|---------------------------------------------------------------------------|


e|--12--0-0--12--0-0--12-0-0--15-14-13--0-0--0-0--5-5--7-7-------------------|
B|---------------------------------------------------------------------------|
G|---------------------------------------------------------------------------|
D|---------------------------------------------------------------------------|
A|---------------------------------------------------------------------------|
E|---------------------------------------------------------------------------|

(A) Angels fall to the floor like they (D) would if I was (E) captain
e|-------------------------------------2-2-2-2-2-2-2-2-2-2-------------------|
B|--2-2-2-2-2-2-2-2-2-2-2-2-2-2-2-2----3-3-3-3-3-3-3-3-3-3-------------------|
G|--2-2-2-2-2-2-2-2-2-2-2-2-2-2-2-2----2-2-2-2-2-2-2-2-2-2--1-1-1-1-1-1-1----|
D|--2-2-2-2-2-2-2-2-2-2-2-2-2-2-2-2-------------------------2-2-2-2-2-2-2----|
A|----------------------------------------------------------2-2-2-2-2-2-2----|
E|---------------------------------------------------------------------------|

(A) Silver children she roared, im not (D) the son of     (E) God
e|-------------------------------------2-2-2-2-2-2-2-2-2-2-------------------|
B|--2-2-2-2-2-2-2-2-2-2-2-2-2-2-2-2----3-3-3-3-3-3-3-3-3-3-------------------|
G|--2-2-2-2-2-2-2-2-2-2-2-2-2-2-2-2----2-2-2-2-2-2-2-2-2-2--1-1-1-1-1-1-1----|
D|--2-2-2-2-2-2-2-2-2-2-2-2-2-2-2-2-------------------------2-2-2-2-2-2-2----|
A|----------------------------------------------------------2-2-2-2-2-2-2----|
E|---------------------------------------------------------------------------|

(A) Somebody help me sing,       can (D) anybody hear      (E) me
e|-------------------------------------2-2-2-2-2-2-2-2-2-2-------------------|
B|--2-2-2-2-2-2-2-2-2-2-2-2-2-2-2-2----3-3-3-3-3-3-3-3-3-3-------------------|
G|--2-2-2-2-2-2-2-2-2-2-2-2-2-2-2-2----2-2-2-2-2-2-2-2-2-2--1-1-1-1-1-1-1----|
D|--2-2-2-2-2-2-2-2-2-2-2-2-2-2-2-2-------------------------2-2-2-2-2-2-2----|
A|----------------------------------------------------------2-2-2-2-2-2-2----|
E|---------------------------------------------------------------------------|

(A) Liers and lovers combine tonight, were (D) gonna make a (E) Scene
e|-------------------------------------2-2-2-2-2-2-2-2-2-2-------------------|
B|--2-2-2-2-2-2-2-2-2-2-2-2-2-2-2-2----3-3-3-3-3-3-3-3-3-3-------------------|
G|--2-2-2-2-2-2-2-2-2-2-2-2-2-2-2-2----2-2-2-2-2-2-2-2-2-2--1-1-1-1-1-1-1----|
D|--2-2-2-2-2-2-2-2-2-2-2-2-2-2-2-2-------------------------2-2-2-2-2-2-2----|
A|----------------------------------------------------------2-2-2-2-2-2-2----|
E|---------------------------------------------------------------------------|

Somebody help me sing      woah - oh - oh - oh
e|---------------------------------------------------------------------------|
B|--2----2-----3-----3-----2-----2-----0-----0-------------------------------|
G|---2-2---2-2---2-2---2-2---2-2---2-2---2-2---2-2---------------------------|
D|---------------------------------------------------------------------------|
A|---------------------------------------------------------------------------|
E|---------------------------------------------------------------------------|

Somebody help me sing      woah - oh - oh - oh
e|---------------------------------------------------------------------------|
B|--2----2-----3-----3-----2-----2-----0-----0-------------------------------|
G|---2-2---2-2---2-2---2-2---2-2---2-2---2-2---2-2---------------------------|
D|---------------------------------------------------------------------------|
A|---------------------------------------------------------------------------|
E|---------------------------------------------------------------------------|

(A) Help me be captain of             (E) our crippled disguises 
e|---------------------------------------------------------------------------|
B|--2-2-2-2-2-2-2-2-2-2-2-2-2-2-2-2------------------------------------------|
G|--2-2-2-2-2-2-2-2-2-2-2-2-2-2-2-2----------1-1-1-1-1-1-1-------------------|
D|--2-2-2-2-2-2-2-2-2-2-2-2-2-2-2-2----------2-2-2-2-2-2-2-------------------|
A|-------------------------------------------2-2-2-2-2-2-2-------------------|
E|---------------------------------------------------------------------------|

(F#m) I won't show whats underneath   (E) its time for surprises
e|--2-2-2-2-2-2-2-2-2-2-2-2-2-2-2-2------------------------------------------|
B|--2-2-2-2-2-2-2-2-2-2-2-2-2-2-2-2------------------------------------------|
G|--2-2-2-2-2-2-2-2-2-2-2-2-2-2-2-2----------1-1-1-1-1-1-1-------------------|
D|--4-4-4-4-4-4-4-4-4-4-4-4-4-4-4-4----------2-2-2-2-2-2-2-------------------|
A|--4-4-4-4-4-4-4-4-4-4-4-4-4-4-4-4----------2-2-2-2-2-2-2-------------------|
E|--2-2-2-2-2-2-2-2-2-2-2-2-2-2-2-2------------------------------------------|

(A) I Cant climb your ladder           (E) I cant ride your horse
e|---------------------------------------------------------------------------|
B|--2-2-2-2-2-2-2-2-2-2-2-2-2-2-2-2------------------------------------------|
G|--2-2-2-2-2-2-2-2-2-2-2-2-2-2-2-2----------1-1-1-1-1-1-1-------------------|
D|--2-2-2-2-2-2-2-2-2-2-2-2-2-2-2-2----------2-2-2-2-2-2-2-------------------|
A|-------------------------------------------2-2-2-2-2-2-2-------------------|
E|---------------------------------------------------------------------------|

(F#m) I've swallowed half an hourglass   (E) so now the landscapes swollen up
e|--2-2-2-2-2-2-2-2-2-2-2-2-2-2-2-2------------------------------------------|
B|--2-2-2-2-2-2-2-2-2-2-2-2-2-2-2-2------------------------------------------|
G|--2-2-2-2-2-2-2-2-2-2-2-2-2-2-2-2----------1-1-1-1-1-1-1-------------------|
D|--4-4-4-4-4-4-4-4-4-4-4-4-4-4-4-4----------2-2-2-2-2-2-2-------------------|
A|--4-4-4-4-4-4-4-4-4-4-4-4-4-4-4-4----------2-2-2-2-2-2-2-------------------|
E|--2-2-2-2-2-2-2-2-2-2-2-2-2-2-2-2------------------------------------------|

[BRIDGE]
e|---------------------------------------------------------------------------|
B|-----5--7--9--10-11-12--10--9----7-9-7---5--7--9--10/12--10--9--10/12/10---|
G|6--7--------------------------------6--7-----------------------------------|
D|---------------------------------------------------------------------------|
A|---------------------------------------------------------------------------|
E|---------------------------------------------------------------------------|


(A) I gave birth to a fire, its (D) like its features were (E) burning
e|-------------------------------------2-2-2-2-2-2-2-2-2-2-------------------|
B|--2-2-2-2-2-2-2-2-2-2-2-2-2-2-2-2----3-3-3-3-3-3-3-3-3-3-------------------|
G|--2-2-2-2-2-2-2-2-2-2-2-2-2-2-2-2----2-2-2-2-2-2-2-2-2-2--1-1-1-1-1-1-1----|
D|--2-2-2-2-2-2-2-2-2-2-2-2-2-2-2-2-------------------------2-2-2-2-2-2-2----|
A|----------------------------------------------------------2-2-2-2-2-2-2----|
E|---------------------------------------------------------------------------|

(A) Out of control, i am the    (D) the son of     (E) God
e|-------------------------------------2-2-2-2-2-2-2-2-2-2-------------------|
B|--2-2-2-2-2-2-2-2-2-2-2-2-2-2-2-2----3-3-3-3-3-3-3-3-3-3-------------------|
G|--2-2-2-2-2-2-2-2-2-2-2-2-2-2-2-2----2-2-2-2-2-2-2-2-2-2--1-1-1-1-1-1-1----|
D|--2-2-2-2-2-2-2-2-2-2-2-2-2-2-2-2-------------------------2-2-2-2-2-2-2----|
A|----------------------------------------------------------2-2-2-2-2-2-2----|
E|---------------------------------------------------------------------------|

(A) Somebody help me sing,       can (D) anybody hear      (E) me
e|-------------------------------------2-2-2-2-2-2-2-2-2-2-------------------|
B|--2-2-2-2-2-2-2-2-2-2-2-2-2-2-2-2----3-3-3-3-3-3-3-3-3-3-------------------|
G|--2-2-2-2-2-2-2-2-2-2-2-2-2-2-2-2----2-2-2-2-2-2-2-2-2-2--1-1-1-1-1-1-1----|
D|--2-2-2-2-2-2-2-2-2-2-2-2-2-2-2-2-------------------------2-2-2-2-2-2-2----|
A|----------------------------------------------------------2-2-2-2-2-2-2----|
E|---------------------------------------------------------------------------|

(A) Line up your soldiors one final time, were (D) gonna have a (E) ball
e|-------------------------------------2-2-2-2-2-2-2-2-2-2-------------------|
B|--2-2-2-2-2-2-2-2-2-2-2-2-2-2-2-2----3-3-3-3-3-3-3-3-3-3-------------------|
G|--2-2-2-2-2-2-2-2-2-2-2-2-2-2-2-2----2-2-2-2-2-2-2-2-2-2--1-1-1-1-1-1-1----|
D|--2-2-2-2-2-2-2-2-2-2-2-2-2-2-2-2-------------------------2-2-2-2-2-2-2----|
A|----------------------------------------------------------2-2-2-2-2-2-2----|
E|---------------------------------------------------------------------------|

Somebody help me sing      woah - oh - oh - oh
e|---------------------------------------------------------------------------|
B|--2----2-----3-----3-----2-----2-----0-----0-------------------------------|
G|---2-2---2-2---2-2---2-2---2-2---2-2---2-2---2-2---------------------------|
D|---------------------------------------------------------------------------|
A|---------------------------------------------------------------------------|
E|---------------------------------------------------------------------------|

Somebody help me sing      woah - oh - oh - oh
e|---------------------------------------------------------------------------|
B|--2----2-----3-----3-----2-----2-----0-----0-------------------------------|
G|---2-2---2-2---2-2---2-2---2-2---2-2---2-2---2-2---------------------------|
D|---------------------------------------------------------------------------|
A|---------------------------------------------------------------------------|
E|---------------------------------------------------------------------------|

(A) Help me be captain of             (E) our crippled disguises 
e|---------------------------------------------------------------------------|
B|--2-2-2-2-2-2-2-2-2-2-2-2-2-2-2-2------------------------------------------|
G|--2-2-2-2-2-2-2-2-2-2-2-2-2-2-2-2----------1-1-1-1-1-1-1-------------------|
D|--2-2-2-2-2-2-2-2-2-2-2-2-2-2-2-2----------2-2-2-2-2-2-2-------------------|
A|-------------------------------------------2-2-2-2-2-2-2-------------------|
E|---------------------------------------------------------------------------|

(F#m) I won't show whats underneath   (E) its time for surprises
e|--2-2-2-2-2-2-2-2-2-2-2-2-2-2-2-2------------------------------------------|
B|--2-2-2-2-2-2-2-2-2-2-2-2-2-2-2-2------------------------------------------|
G|--2-2-2-2-2-2-2-2-2-2-2-2-2-2-2-2----------1-1-1-1-1-1-1-------------------|
D|--4-4-4-4-4-4-4-4-4-4-4-4-4-4-4-4----------2-2-2-2-2-2-2-------------------|
A|--4-4-4-4-4-4-4-4-4-4-4-4-4-4-4-4----------2-2-2-2-2-2-2-------------------|
E|--2-2-2-2-2-2-2-2-2-2-2-2-2-2-2-2------------------------------------------|

(A) I Cant climb your ladder           (E) I cant ride your horse
e|---------------------------------------------------------------------------|
B|--2-2-2-2-2-2-2-2-2-2-2-2-2-2-2-2------------------------------------------|
G|--2-2-2-2-2-2-2-2-2-2-2-2-2-2-2-2----------1-1-1-1-1-1-1-------------------|
D|--2-2-2-2-2-2-2-2-2-2-2-2-2-2-2-2----------2-2-2-2-2-2-2-------------------|
A|-------------------------------------------2-2-2-2-2-2-2-------------------|
E|---------------------------------------------------------------------------|

(F#m) I've swallowed half an hourglass   (E) so now the landscapes swollen up
e|--2-2-2-2-2-2-2-2-2-2-2-2-2-2-2-2------------------------------------------|
B|--2-2-2-2-2-2-2-2-2-2-2-2-2-2-2-2------------------------------------------|
G|--2-2-2-2-2-2-2-2-2-2-2-2-2-2-2-2----------1-1-1-1-1-1-1-------------------|
D|--4-4-4-4-4-4-4-4-4-4-4-4-4-4-4-4----------2-2-2-2-2-2-2-------------------|
A|--4-4-4-4-4-4-4-4-4-4-4-4-4-4-4-4----------2-2-2-2-2-2-2-------------------|
E|--2-2-2-2-2-2-2-2-2-2-2-2-2-2-2-2------------------------------------------|

(A) Lets love death away           (E) Lets love death away
e|---------------------------------------------------------------------------|
B|--2-2-2-2-2-2-2-2-2-2-2-2-2-2-2-2------------------------------------------|
G|--2-2-2-2-2-2-2-2-2-2-2-2-2-2-2-2----------1-1-1-1-1-1-1-------------------|
D|--2-2-2-2-2-2-2-2-2-2-2-2-2-2-2-2----------2-2-2-2-2-2-2-------------------|
A|-------------------------------------------2-2-2-2-2-2-2-------------------|
E|---------------------------------------------------------------------------|

(F#m) Lets love death away  (E) Lets love death away
e|--2-2-2-2-2-2-2-2-2-2-2-2-2-2-2-2------------------------------------------|
B|--2-2-2-2-2-2-2-2-2-2-2-2-2-2-2-2------------------------------------------|
G|--2-2-2-2-2-2-2-2-2-2-2-2-2-2-2-2----------1-1-1-1-1-1-1-------------------|
D|--4-4-4-4-4-4-4-4-4-4-4-4-4-4-4-4----------2-2-2-2-2-2-2-------------------|
A|--4-4-4-4-4-4-4-4-4-4-4-4-4-4-4-4----------2-2-2-2-2-2-2-------------------|
E|--2-2-2-2-2-2-2-2-2-2-2-2-2-2-2-2------------------------------------------|

(A) Lets love death away           (E) Lets love death away
e|---------------------------------------------------------------------------|
B|--2-2-2-2-2-2-2-2-2-2-2-2-2-2-2-2------------------------------------------|
G|--2-2-2-2-2-2-2-2-2-2-2-2-2-2-2-2----------1-1-1-1-1-1-1-------------------|
D|--2-2-2-2-2-2-2-2-2-2-2-2-2-2-2-2----------2-2-2-2-2-2-2-------------------|
A|-------------------------------------------2-2-2-2-2-2-2-------------------|
E|---------------------------------------------------------------------------|

(F#m) Lets love death away   (E) Lets love death away
e|--2-2-2-2-2-2-2-2-2-2-2-2-2-2-2-2------------------------------------------|
B|--2-2-2-2-2-2-2-2-2-2-2-2-2-2-2-2------------------------------------------|
G|--2-2-2-2-2-2-2-2-2-2-2-2-2-2-2-2----------1-1-1-1-1-1-1-------------------|
D|--4-4-4-4-4-4-4-4-4-4-4-4-4-4-4-4----------2-2-2-2-2-2-2-------------------|
A|--4-4-4-4-4-4-4-4-4-4-4-4-4-4-4-4----------2-2-2-2-2-2-2-------------------|
E|--2-2-2-2-2-2-2-2-2-2-2-2-2-2-2-2------------------------------------------|

(OUTRO)
e|---------------------------------------------------------------------------|
B|--------------------2------------------------------------------------------|
G|--2-----2-----2-----0----2-----2-----5-4-3---------------------------------|  
D|--2-----2-----2-----2----2-----2-----5-4-3---------------------------------|
A|--0-0-0-0-0-0-0-0-0-3----0-0-0-0-0-0-3-2-1---------------------------------|
E|---------------------------------------------------------------------------|

(OUTRO)
e|---------------------------------------------------------------------------|
B|--------------------2---------------------------------2--------------------|
G|--2-----2-----2-----0----2-----2-----5-4-3------------0--------------------|  
D|--2-----2-----2-----2----2-----2-----5-4-3------------2--------------------|
A|--0-0-0-0-0-0-0-0-0-3----0-0-0-0-0-0-3-2-1------------3--------------------|
E|---------------------------------------------------------------------------|

Thats about it :)
Tap to rate this tab
 
# A B C D E F G H I J K L M N O P Q R S T U V W X Y Z