Song name
# A B C D E F G H I J K L M N O P Q R S T U V W X Y Z

Biffy Clyro - The Captain tab

This is a great and really fun song to play :D

Tuning - drop C (CACFAD)

not sure about some parts coz the other damn instruments were blocking out the guitar XD

though im 99% sure its correct :)


INTRO:

|----------------------------------------------|
|----------------------------------------------|
|----------------------------------------------|
|-15-14-13-12-11-10-0--------------WHOAH!!!----|
|-15-14-13-12-11-10-0--------------------------|
|-15-14-13-12-11-10-0--------------------------|

|---------------------------------------------------------|
|---------------------------------------------------------|
|----------------------10---------------------------------|
|-12-0-0-12-0-0-12-0-0-10--12-0-0-12-0-0-12-0-0-15-14-13--|
|-12-0-0-12-0-0-12-0-0-8---12-0-0-12-0-0-12-0-0-15-14-13--|
|-12-0-0-12-0-0-12-0-0-----12-0-0-12-0-0-12-0-0-15-14-13--|

|--------------------------------------------------------------------------|
|--------------------------------------------------------------------------|
|----------------------10--------------------------------------------------|
|-12-0-0-12-0-0-12-0-0-10--12-0-0-12-0-0-12-0-0-15-14-13-12-11-10----------|
|-12-0-0-12-0-0-12-0-0-8---12-0-0-12-0-0-12-0-0-15-14-13-12-11-10----------|
|-12-0-0-12-0-0-12-0-0-----12-0-0-12-0-0-12-0-0-15-14-13-12-11-10----------|

|------------------------|
|------------------------|
|-7----7----12----14\----|
|-7----7----12----14\----|
|-5----5----10----12\----|
|------------------------|


FIRST VERSE IS JUST BASS AND DRUMS


PRECHORUS:

|---14----14----14----15----15----15---14---14----14----12----12----12-----|
|-15----15----15----15----15----15----15---15---15----15----15----15-------|
|--------------------------------------------------------------------------|
|--------------------------------------------------------------------------|
|--------------------------------------------------------------------------|
|--------------------------------------------------------------------------|

|--14---14---14---15---15---15---14---14---14--12--12--12--12--12--12------|
|15---15---15---15---15---15---15---15---15----15b-15b-15b-15b-15b-15b-----|
|--------------------------------------------------------------------------|
|--------------------------------------------------------------------------|
|--------------------------------------------------------------------------|
|--------------------------------------------------------------------------|

CHORUS:

|-------------------------------------|      
|-------------------------------------|
|---------14-x12--16-x12--14-x12------|       PLAY THIS TWICE
|-12-x12--14------16------14----------|
|-12------12------14------12----------|
|-12----------------------------------|

BREAK:

|------------------------------------------|
|------------------------------------------|
|----------------------------12-x6--14-x6--|         PLAY THIS TWICE
|-12-0-0-12-0-12-0-0-12-0-0--12-----14-----|             AS WELL
|-12-0-0-12-0-12-0-0-12-0-0--10-----12-----|
|-12-0-0-12-0-12-0-0-12-0-0----------------|

VERSE 2:

|---------------------------------------------------------------|
|---------------------------------------------------------------|
|---------------------------------------------------------------|   x4
|---------------------------------------------------------------|
|------------------------------5-5-5-5-5-5--7-7-7-7-7-7---------|
|-12-0-0-12-0-0-12-0-0-12-0-0--5-5-5-5-5-5--7-7-7-7-7-7---------|

REPEAT PRECHORUS

REPEAT CHORUS

BREAK 2 + BRIDGE ("LETS THROW DEATH AWAY")

|---------------------------------------|     PLAY ONCE FOR THE BREAK AND 
|---------------------------------------|     TWICE FOR THE BRIDGE
|---------14-x12--16-x12--14-x6--12-x6--|
|-12-x12--14------16------14-----12-----|
|-12------12------14------12-----10-----|
|-12------------------------------------|

OUTRO:

|--------------------------------------------------------------------------|
|--------------------------------------------------------------------------|
|-----------------------10-------------------------------------------------|
|-12-0-0-12-0-0-12-0-0--10--12-0-0-12-0-0-12-0-0-15-14-13------------------|
|-12-0-0-12-0-0-12-0-0--8---12-0-0-12-0-0-12-0-0-15-14-13------------------|
|-12-0-0-12-0-0-12-0-0------12-0-0-12-0-0-12-0-0-15-14-13------------------|

|--------------------------------------------------------------------------|
|--------------------------------------------------------------------------|
|-----------------------10-----------------------------10~-----------------|
|-12-0-0-12-0-0-12-0-0--10--12-0-0-12-0-0-12---0---0---10~-----------------|
|-12-0-0-12-0-0-12-0-0--8---12-0-0-12-0-0-12---0---0---8-~-----------------|
|-12-0-0-12-0-0-12-0-0------12-0-0-12-0-0-12---0---0-----------------------|

There it is, hope you like it :)
Tap to rate this tab
 
# A B C D E F G H I J K L M N O P Q R S T U V W X Y Z