Song name
# A B C D E F G H I J K L M N O P Q R S T U V W X Y Z

Biffy Clyro - Cloud Of Stink tab

Hi. Here's the tab for Cloud Of Stink by Biffy Clyro. I decided to make it myself, 
because on other tabs, many parts were wrong, so here I'm 95% (hehe) sure.

Tunning (Low E to high e): C# G# C# F# A# D#

Intro :

D# |--------------------------------------------------------|
A# |--------------------------------------------------------|
F# |------------5---------5------------5--------------------|  x 2
C# |--0--0-3-0--x--0-3-0--x--0--0-3-0--x--0-3-0--7-7-7-7-7--|
G# |--0--0-3-0--5--0-3-0--5--0--0-3-0--5--0-3-0--7-7-7-7-7--|
C# |--0--0-3-0-----0-3-0-----0--0-3-0-----0-3-0--7-7-7-7-7--|

Verse :

D# |--------------------------------------------------------|
A# |--------------------------------------------------------|
F# |------------5---------5------------5--------------------|  x 2
C# |--0--0-3-0--x--0-3-0--x--0--0-3-0--x--0-3-0--7-7-7-7-7--|
G# |--0--0-3-0--5--0-3-0--5--0--0-3-0--5--0-3-0--7-7-7-7-7--|
C# |--0--0-3-0-----0-3-0-----0--0-3-0-----0-3-0--7-7-7-7-7--|

Chorus :

D# |---------------------------------------------------|
A# |---------------------------------------------------|
F# |--9---9---9---9---9---9---9---9---9---9---9---9----|
C# |---10--10--10--10--10--10--10--10--10--10--10--10--|
G# |---------------------------------------------------|
C# |---------------------------------------------------|

D# |---------------------------------------------------------------|
A# |---------------------------------------------------------------|
F# |--10---10---10---10---12---12---12---12---12---12---12---12----|
C# |------------------------10---10---10---10---10---10---10-------|
G# |----10---10---10---10------------------------------------------|
C# |---------------------------------------------------------------|

D# |--------------------------|
A# |--------------------------|
F# |--12---12---12---12---12--|
C# |----10---10---10---10-----|
G# |--------------------------|
C# |--------------------------|


Bridge :

D# |-----------------------------------------------------------------------|
A# |---------------------------------------------------101010101010101010--|
F# |----------------------------------------------------9-9-9-9-9-9-9-9-9--|
C# |-12-0-0-12--0-12-0-0-12--0-12-0-0-12--10-10-10--7---7-7-7-7-7-7-7-7-7--|
G# |-12-0-0-12--0-12-0-0-12--0-12-0-0-12--10-10-10--7---7-7-7-7-7-7-7-7-7--|
C# |-12-0-0-12--0-12-0-0-12--0-12-0-0-12--10-10-10--7---7-7-7-7-7-7-7-7-7--|

D# |-----------------|
A# |-10101010101010--|
F# |--9-9-9-9-9-9-9--|
C# |--7-7-7-7-7-7-7--|     x 2
G# |--7-7-7-7-7-7-7--|
C# |--7-7-7-7-7-7-7--|

D# |-----------------------------------------------------------------------|
A# |-6-6-6-6-6-6-6-6-6-6-6-6-6-6-6-6---------------1010101010101010101010--|
F# |-5-5-5-5-5-5-5-5-5-5-5-5-5-5-5-5----------------9-9-9-9-9-9-9-9-9-9-9--|
C# |-3-3-3-3-3-3-3-3-3-3-3-3-3-3-3-3--10-10-10--7---7-7-7-7-7-7-7-7-7-7-7--|
G# |-3-3-3-3-3-3-3-3-3-3-3-3-3-3-3-3--10-10-10--7---7-7-7-7-7-7-7-7-7-7-7--|
C# |-3-3-3-3-3-3-3-3-3-3-3-3-3-3-3-3--10-10-10--7---7-7-7-7-7-7-7-7-7-7-7--|

D# |----------------------------------------------|
A# |-1010101010--6-6-6-6-6-6-6-6-6-6-6-6-6-6-6-6--|
F# |--9-9-9-9-9--5-5-5-5-5-5-5-5-5-5-5-5-5-5-5-5--|
C# |--7-7-7-7-7--3-3-3-3-3-3-3-3-3-3-3-3-3-3-3-3--|
G# |--7-7-7-7-7--3-3-3-3-3-3-3-3-3-3-3-3-3-3-3-3--|
C# |--7-7-7-7-7--3-3-3-3-3-3-3-3-3-3-3-3-3-3-3-3--|

D# |---------------------------------|
A# |--8-8-8-8-8-8-8-8-8-8-8-8-8-8-8--|
F# |--7-7-7-7-7-7-7-7-7-7-7-7-7-7-7--|
C# |--5-5-5-5-5-5-5-5-5-5-5-5-5-5-5--|
G# |--5-5-5-5-5-5-5-5-5-5-5-5-5-5-5--|
C# |--5-5-5-5-5-5-5-5-5-5-5-5-5-5-5--|

Verse

Chorus

Bridge

Break :

D# |------8~----(8)------12~----(12)------|
A# |-----8~----(10)-----10~-----(10)------|
F# |----9~------(9)----10~------(10)------|
C# |--10~------(10)---12~-------(12)------|
G# |--------------------------------------|
C# |--------------------------------------|

D# |-----------------------------------------------------|
A# |-----------------------------------------------------|
F# |-----------------------------------------------------|
C# |-5------5------5------5------5------5------5------5--|
G# |-7------7------7------7------7------7------7------7--|
C# |-7--7-7-7--7-7-7--7-7-7--7-7-7--7-7-7--7-7-7--7-7-7--|
P.M     * *    * *    * *    * *    * *    * *    * *

D# |--------------------------------------------|
A# |--------------------------------------------|
F# |-------------------14-14-14-14-14-14-14-14--|
C# |--10-10--10-10-10--10-10-10-10-10-10-10-10--|
G# |--10-10--10-10-10--10-10-10-10-10-10-10-10--|
C# |--10-10--10-10-10--10-10-10-10-10-10-10-10--|

D# |--------------------------------------------|
A# |--------------------------------------------|
F# |-------------------14-14-14-14-14-14-14-14--|
C# |--12-12--12-12-12--12-12-12-12-12-12-12-12--|
G# |--12-12--12-12-12--12-12-12-12-12-12-12-12--|
C# |--12-12--12-12-12--12-12-12-12-12-12-12-12--|

D# |----------------------------------------------------------------|
A# |----------------------------------------------------------------|
F# |----------------------------------------------------------------|
C# |-3-3-3-3-3-3-3-3-3-3-3-3-3-3-3-3-3-3-3-3-3-3-3-3-3-3-3-3-3-3-3--|
G# |-3-3-3-3-3-3-3-3-3-3-3-3-3-3-3-3-3-3-3-3-3-3-3-3-3-3-3-3-3-3-3--|
C# |-3-3-3-3-3-3-3-3-3-3-3-3-3-3-3-3-3-3-3-3-3-3-3-3-3-3-3-3-3-3-3--|

D# |--------------------------------------|                            |
A# |-------------10-10-10-10-10-10-10-10--|                            |
F# |--------------9--9--9--9--9--9--9--9--|                            |
C# |--7-7--7-7-7--7--7--7--7--7--7--7--7--|                            |
G# |--7-7--7-7-7--7--7--7--7--7--7--7--7--|                            |
C# |--7-7--7-7-7--7--7--7--7--7--7--7-----|                            |
                                                                       |
D# |--------------------------------------------|                      |
A# |--------------------------------------------|                      |
F# |-------------------14-14-14-14-14-14-14-14--|                      | x 2
C# |--10-10--10-10-10--10-10-10-10-10-10-10-10--|                      |
G# |--10-10--10-10-10--10-10-10-10-10-10-10-10--|                      |
C# |--10-10--10-10-10--10-10-10-10-10-10-10-10--|                      |
                                                                       |
D# |----------------------------------------------------------------|  |
A# |----------------------------------------------------------------|  |
F# |----------------------------------------------------------------|  |
C# |-3-3-3-3-3-3-3-3-3-3-3-3-3-3-3-3-3-3-3-3-3-3-3-3-3-3-3-3-3-3-3--|  |
G# |-3-3-3-3-3-3-3-3-3-3-3-3-3-3-3-3-3-3-3-3-3-3-3-3-3-3-3-3-3-3-3--|  |
C# |-3-3-3-3-3-3-3-3-3-3-3-3-3-3-3-3-3-3-3-3-3-3-3-3-3-3-3-3-3-3-3--|  |


Verse


Outro :

D# |---------------------------------------------------------------|
A# |---------------------------------------------------------------|
F# |---------------------------------------------------------------|
C# |--0~--------------Feeeeeeeeeeed-baaaaaaack---------------------|
G# |--0~-----------------------------------------------------------|
C# |--0~-----------------------------------------------------------|

D# |---------------------------------------------|
A# |---------------------------------------------|
F# |---------------------------------------------|
C# |--0--0-0-0--0-0-0--0--0-0-0--0-0-0--0-0-0-0--|
G# |--0--0-0-0--0-0-0--0--0-0-0--0-0-0--0-0-0-0--|
C# |--0--0-0-0--0-0-0--0--0-0-0--0-0-0--0-0-0-0--|

D# |-----------------------------------------------------|
A# |-----------------------------------------------------|
F# |-----------------------------------------------------|
C# |--0--0-0-0--0-0-0--0--0-0-0--0-0-0--0-0-0-0-0-0-0-0--|
G# |--0--0-0-0--0-0-0--0--0-0-0--0-0-0--0-0-0-0-0-0-0-0--|
C# |--0--0-0-0--0-0-0--0--0-0-0--0-0-0--0-0-0-0-0-0-0-0--|

D# |--------------------------------------------|
A# |--------------------------------------------|
F# |--------------------------------------------|
C# |--0--0-0-0--0-0-0--0--0-0-0--0-0-0--0-0-0-0-|
G# |--0--0-0-0--0-0-0--0--0-0-0--0-0-0--0-0-0-0-|
C# |--0--0-0-0--0-0-0--0--0-0-0--0-0-0--0-0-0-0-|

Thanks, I hope you enjoyed my tab. ;)
Tap to rate this tab
 
# A B C D E F G H I J K L M N O P Q R S T U V W X Y Z