Biffy Clyro - Killing In The Name Acoustic tab

-------------------------------------------------------------------------------
			     Killing in the Name Acoustic - Biffy Clyro
-------------------------------------------------------------------------------
Tabbed by: Banjocal
Transcribed from: http://www.youtube dot com/watch?v=MIqBwavdlJ0&feature=youtu.be

Tuning: E Standard

A (head)
e|-------------------------------------------------------------------|
B|-------------------------------------------------------------------|
G|-4-4-4-2-2-2-2-2-4-4-4-4-4-4-4-4----0-----0---0------0-----0---0---|
D|-2-2-2-2-2-2-2-2-2-2-2-0-0-0-0-0--4---4------------4---4-----------|
A|----------------------------------------3---3---3--------3---3---3-|
E|-------------------------------------------------------------------|

B (vox)
e|-----------------------------------------------------------------|
B|-------------------------------------------------------------0-0-|
G|-4-4-4-4-4-4-4-4-4-4-4-4-4-4-4-4-2-2-2-2-2-2-2-2-------0-0-0-0-0-|
D|-2-2-2-2-2-2-2-2-0-0-0-0-0-0-0-0-4-4-4-4-4-4-4-4-2-2-2-2-2-2-2-2-|
A|-------------------------------------------------3-3-3-3-3-3-3-3-|
E|-----------------------------------------------------------------|

C (figure out the exact pattern yourself)
   Em        D           B#5 
e|-------------------------------------0--0--0---|
B|---8-8-8-----10-10-10-----0--0--0----0--0--0---|
G|---9-9-9-----11-11-11-----0--0--0----9--9--9---|
D|---9-9-9-----12-12-12-----9--9--9---10-10-10---|
A|---7-7-7-----12-12-12----10-10-10---10-10-10---|
E|-0--------10-----------7----------8------------|


D Section (strum faster, down strokes)
   G               Dsus4            Em            Dsus4              C
e|---3-3-3-3-3-3-3-------------------------------------------------|-------------------|
B|---0-0-0-0-0-0-0---3-3-3-3-3-3-3---0-0-0-0-0-0-0-----------------|-------------------|
G|---0-0-0-0-0-0-0---0-0-0-0-0-0-0---0-0-0-0-0-0-0---0-0-0-0-0-0-0-|o-0-0-0-0-0-0-0-0-o|
D|---0-0-0-0-0-0-0---4-4-4-4-4-4-4---5-5-5-5-5-5-5---4-4-4-4-4-4-4-|o-2-2-2-2-2-2-2-2-o|
A|---2-2-2-2-2-2-2-5-5-5-5-5-5-5-5-7-7-7-7-7-7-7-7-5-5-5-5-5-5-5-5-|--3-3-3-3-3-3-3-3--|
E|-3---------------------------------------------------------------|-------------------|
                                                                                     x2
E Section "I WON'T DO WHAT YOU TELL ME"
   D/A                             G
e|-----------------------------------------------------------------|
B|-3-3-3-3-3-3-3-3-3-3-3-3-3-3-3-3-3-3-3-3-3-3-3-3-3-3-3-3-3-3-3-3-|
G|-2-2-2-2-2-2-2-2-2-2-2-2-2-2-2-2-0-0-0-0-0-0-0-0-0-0-0-0-0-0-0-0-|
D|-0-0-0-0-0-0-0-0-0-0-0-0-0-0-0-0-0-0-0-0-0-0-0-0-0-0-0-0-0-0-0-0-|
A|-0-0-0-0-0-0-0-0-0-0-0-0-0-0-0-0-2-2-2-2-2-2-2-2-2-2-2-2-2-2-2-2-|
E|---------------------------------3-3-3-3-3-3-3-3-3-3-3-3-3-3-3-3-|
 
   Bm                              Cadd9
e|-----------------------------------------------------------------|
B|-3-3-3-3-3-3-3-3-3-3-3-3-3-3-3-3-3-3-3-3-3-3-3-3-3-3-3-3-3-3-3-3-|
G|-4-4-4-4-4-4-4-4-4-4-4-4-4-4-4-4-0-0-0-0-0-0-0-0-0-0-0-0-0-0-0-0-|
D|-4-4-4-4-4-4-4-4-4-4-4-4-4-4-4-4-2-2-2-2-2-2-2-2-2-2-2-2-2-2-2-2-|
A|-2-2-2-2-2-2-2-2-2-2-2-2-2-2-2-2-3-3-3-3-3-3-3-3-3-3-3-3-3-3-3-3-|
E|-----------------------------------------------------------------|

End "We're killing in the name of..."
E|----------0------------------------------|
B|----------3------------------------------|
G|-0--------2------------------------------|
D|-2--------0------------------------------|
A|-3---------------------------------------|
E|-----------------------------------------|

Structure

Ax2
Bx2
C
Dx2
Bx2 (on the on the last chord of the B section; the C, play a Cadd9: x3203x
Cx2
Dx2 (on 2nd time, repeat the C repeat bars 4 times, not 2, and the 3rd and 4th time, play a Cadd9)
Ex2
End
Tap to rate this tab
 
# A B C D E F G H I J K L M N O P Q R S T U V W X Y Z