Song name
# A B C D E F G H I J K L M N O P Q R S T U V W X Y Z

Biffy Clyro - Living Is A Problem Because Everything Dies tab

Song: Living is a Problem Because Everything Dies
Artist: Biffy Clyro
Album: Puzzle
Year: 2007
Writer: Simon Neil

Intro

D----------------------------------------------------------------------|
A----------------------------------------------------------------------|
F-----------------------------------14----------------------12--12--12-|
C------------------------------------x----------------------12--12--12-|
G--0--0--0--0--0--0--0--0--0--0--0--12 etc then 0--0--0--0--12--12--12-|
C----------------------------------------------------------------------|

D-----------------------------------------|
A-----------------------------------------|
F---------------------------------------0-|
C---------------------------------------0-|
F--0--0--0--0--0--0--0--0--0--0--0--0--12-| Keep strumming for however long
C-----------------------------------------|

Bit before Verse:

"Come on baby do you..."

D----------------------------------------|
A----------------------------------------|
F----------------------------------------|
C----------------------------------------|
G--0--0--0--0--0--0--0--0--0--0--0--0--0-|
C----------------------------------------|


Verse: "I fear God because everything dies babe..."

D----------------------------------------------------------------------|
A----------------------------------------------------------------------|
F--------------------7--7--7--9--9--9--9--------------------7--7--9--9-|
C--7--7--7--9--9--9--7--7--7--7--7--7--7--7--7--7--9--9--9--7--7--7--7-|
G--0--0--0--0--0--0--0--0--0--0--0--0--0--0--0--0--0--0--0--0--0--0--0-|
C----------------------------------------------------------------------|

D----------------------------------------------------------------|
A----------------------------------------------------------------|
F--------------7--7--7--9--9--9--9--9--10--7--9--10--7--5--7--5--|
C--7--7--7--9--9--9--7--7--7--7--7--0---0--0--0---0--0--0--0--0--|
G--8--8--8--8--8--8--8--8--8--8--8--0---0--0--0---0--0--0--0--0--|
C-----------------------------------0---0--0--0---0--0--0--0--0--| x2



Pre-chorus:

D----------------------------------------------------------|
A----------------------------------------------------------|
F-----8-----------8----------8-----------------------------|
C--7-----10p0--7-----10/--7-----10p0--0--0--0--0--0--0--0--|
G--7-----------7----------7-----------0--0--0--0--0--0--0--|
C--7-----------7----------7-----------0--0--0--0--0--0--0--| x2



Then:

"I pray to God..."

D-----------------------------------------------------------|
A-----------------------------------------------------------|
F-----------------------------------------------------------|
C--10--10--10--10--10--10--10--10--7--7--7--7--7--7--7--7---|
G--8---8---8---8---7---7---7---7---7--7--7--7--7--7--7--7---|
C----------------------------------7--7--7--7--7--7--7--7---|  x2

D----------------------------------------------------------------------|
A----------------------------------------------------------------------|
F--------------------8--8--8--8--8--8--5--5--5--5--5--5--5--5--5--5--5-|
C--6--6--6--6--6--6--8--8--8--8--8--8--5--5--5--5--5--5--5--5--5--5--5-|
G--6--6--6--6--6--6--6--6--6--6--6--6--3--3--3--3--3--3--3--3--3--3--3-|
C--6--6--6--6--6--6----------------------------------------------------|

D-------------------------------------------------------|
A-------------------------------------------------------|
F--------------------8--8--8--8--8--8-------------------|
C--6--6--6--6--6--6--8--8--8--8--8--8--5--5--5--5--5--5-|
G--6--6--6--6--6--6--6--6--6--6--6--6--5--5--5--5--5--5-|
C--6--6--6--6--6--6--------------------5--5--5--5--5--5-|

Chorus:

D-----------------------------------------------------|
A-----------------------------------------------------|
F--5--5--5--5--7--7--7--7--8--8--8--8--15--15--15--15-|
C--5--5--5--5--7--7--7--7--8--8--8--8--15--15--15--15-|
G--3--3--3--3--5--5--5--5--6--6--6--6--13--13--13--13-|
C-----------------------------------------------------|

D---------------------------------------------|
A---------------------------------------------|
F--12--12--12--12--12--12--12--12--12--12--12-|
C--12--12--12--12--12--12--12--12--12--12--12-|
G--10--10--10--10--10--10--10--10--10--10--10-|
C---------------------------------------------|

D-------------------------------------|
A-------------------------------------|
F--7--7--7--7--7--7--8--8--8--8--8--8-|
C--7--7--7--7--7--7--8--8--8--8--8--8-|
G--5--5--5--5--5--5--6--6--6--6--6--6-|
C-------------------------------------|

D-----------------------------------------------------|
A-----------------------------------------------------|
F--5--5--5--5--7--7--7--7--8--8--8--8--15--15--15--15-|
C--5--5--5--5--7--7--7--7--8--8--8--8--15--15--15--15-|
G--3--3--3--3--5--5--5--5--6--6--6--6--13--13--13--13-|
C-----------------------------------------------------|

D---------------------------------------------|
A---------------------------------------------|
F--12--12--12--12--12--12--12--12--12--12--12-|
C--12--12--12--12--12--12--12--12--12--12--12-|
G--10--10--10--10--10--10--10--10--10--10--10-|
C---------------------------------------------|

D----------------------------------------------------------------------|
A----------------------------------------------------------------------|
F--7--7--7--7--7--7--8--8--8--8--8--8--5--5--5--5--5--5--5--5--5--5--5-|
C--7--7--7--7--7--7--8--8--8--8--8--8--5--5--5--5--5--5--5--5--5--5--5-|
G--5--5--5--5--5--5--6--6--6--6--6--6--3--3--3--3--3--3--3--3--3--3--3-|
C----------------------------------------------------------------------|

Verse 2:

D-------------------------------------------------------------|
A-------------------------------------------------------------|
F-----------------7--7--7--9--9-----------------7--7--7--9--9-|
C--7--7--9--9--9--7--7--7--7--7--7--7--9--9--9--7--7--7--7--7-|
G--0--0--0--0--0--0--0--0--0--0--0--0--0--0--0--0--0--0--0--0-|
C-------------------------------------------------------------|

D-------------------------------------------------------------|
A-------------------------------------------------------------|
F-----------------7--7--7--9--9-----------------7--7--7--9--9-|
C--7--7--9--9--9--7--7--7--7--7--7--7--9--9--9--0--0--0--0--0-|
G--8--8--8--8--8--8--8--8--8--8--0--0--0--0--0--0--0--0--0--0-|
C--------------------------------0--0--0--0--0--0--0--0--0--0-|

D----------------------------------------------------------------------|
A----------------------------------------------------------------------|
F--------------------7--7--7--9--9--9--9--------------------7--7--9--9-|
C--7--7--7--9--9--9--7--7--7--7--7--7--7--7--7--7--9--9--9--7--7--7--7-|
G--0--0--0--0--0--0--0--0--0--0--0--0--0--0--0--0--0--0--0--0--0--0--0-|
C----------------------------------------------------------------------|

D---------------------------------------------------------------|
A---------------------------------------------------------------|
F--------------7--7--7--9--9--9--9--9--10--7--9--10--7--5--7--5-|
C--7--7--7--9--9--9--7--7--7--7--7--0---0--0--0---0--0--0--0--0-|
G--8--8--8--8--8--8--8--8--8--8--8--0---0--0--0---0--0--0--0--0-|
C-----------------------------------0---0--0--0---0--0--0--0--0-|

Song Order:

Intro
Bit Before Intro
Verse 1
Pre-Chorus
Chorus
Verse 2
Pre-Chorus
Chorus
Intro
Pre-Chorus
Chorus

That's it :) Enjoy!
Tap to rate this tab
 
# A B C D E F G H I J K L M N O P Q R S T U V W X Y Z