Song name
# A B C D E F G H I J K L M N O P Q R S T U V W X Y Z

Biffy Clyro - Glitter And Trauma tab

Hey, this is my first tab so please let me know if its ok... or if its shite!

ok it's in a drop D tuning as are most biffy songs. so you'll need to drop it down.

INTRO                                            HEAVY DISTORTION
E|-----------12-14----Repeat 7 times  /   E|-0--0-0--0-0--0-0--0-0--0-0--0-0--|
B|--0-14-15-------------------------  /   B|-0--0-0--0-0--0-0--0-0--0-0--0-0--|
G|----------------------------------  /   G|-0--0-0--0-0--0-0--0-0--0-0--0-0--|
D|----------------------------------  /   D|-0--0-0--0-0--0-0--0-0--0-0--0-0--|
A|----------------------------------  /   A|-12-0-12-0-12-0-12-0-12-0-12-0-12-|
D|----------------------------------  /   E|-12-0-12-0-12-0-12-0-12-0-12-0-12-|

E|-0--0-0--0-0--0-0--0-0--0-0--0-0--0-0--0-0--0-0--0-0--0-0--0-0--0-0--0-|
B|-0--0-0--0-0--0-0--0-0--0-0--0-0--0-0--0-0--0-0--0-0--0-0--0-0--0-0--0-|
G|-0--0-0--0-0--0-0--0-0--0-0--0-0--0-0--0-0--0-0--0-0--0-0--0-0--0-0--0-|
D|-0--0-0--0-0--0-0--0-0--0-0--0-0--0-0--0-0--0-0--0-0--0-0--0-0--0-0--0-|
A|-13-0-12-0-13-0-13-0-13-0-13-0-13-0-15-0-15-0-15-0-15-0-15-0-15-0-15/1-|
D|-12-0-12-0-12-0-12-0-12-0-12-0-12-0-12-0-12-0-12-0-12-0-12-0-12-0-12/1-|

VERSE  (CLEAN)

E|-0-0-0-0-0---0-0--}
B|-0-0-0-0-0---0-0--}
G|-4-4-0-0-0---3-3--}Repeat x 2.. then vocals come in
D|-4-4-0-0-0--------}
A|-2-2-0-2-3--------}
D|-0-0-0-0-0--------}


   Diamonds glitter and trauma tears, with an unfriendly atmosphere

E|-------0-0---0-0-0--------0--0----------0-0-----0-0-0-------0--0-|
B|-------0-0---0-0-0--------0--0----------0-0-----0-0-0-------0--0-|
G|-------4-4---0-0-0--------3--3----------4-4-----0-0-0-------3--3-|
D|-------4-4---0-0-0----------------------4-4-----0-0-0------------|
A|-------2-2---0-2-3----------------------2-2-----0-2-3------------|
D|-------0-0---0-0-0----------------------0-0-----0-0-0------------|

BRIDGE

      You can save tham all        i belive that you can    even though
E|-0-0-0-0-0-0-0-0-0-0-0-0-0-0-0-0-0-0-0-0-0-0-0-0-0-0-0-0-0-0-0-0-0-0-0-|
B|-0-0-0-0-0-0-0-0-0-0-0-0-0-0-0-0-0-0-0-0-0-0-0-0-0-0-0-0-0-0-0-0-0-0-0-|
G|-6-6-6-6-6-6-6-6-6-6-4-4-4-4-4-4-4-4-4-4-4-4-4-0-0-0-0-0-0-0-0-0-0-0-0-|
D|-7-7-7-7-7-7-7-7-7-7-4-4-4-4-4-4-4-4-4-4-4-4-4-4-4-4-4-4-4-4-4-4-4-4-4-|
A|-5-5-5-5-5-5-5-5-5-5-2-2-2-2-2-2-2-2-2-2-2-2-2-5-5-5-5-5-5-5-5-5-5-5-5-|
D|-0-0-0-0-0-0-0-0-0-0-0-0-0-0-0-0-0-0-0-0-0-0-0-5-5-5-5-5-5-5-5-5-5-5-5-|

                 you never listen  you never listen
E|-0-------0--0-0-0-0-0-0-0-0-0-0-0-0-0-0-0-0-0-0-0-0-5-5-|
B|-0-10-10-0--3-3-3-3-3-3-3-3-0-0-0-0-0-0-0-0-0-0-0-0-5-5-|
G|-0-9--9--0--2-2-2-2-2-2-2-2-4-4-4-4-4-4-4-4-4-4-4-4-4-4-|
D|-0-------0------------------4-4-4-4-4-4-4-4-4-4-4-4-4-4-|
A|-0-------0------------------2-2-2-2-2-2-2-2-5-5-5-5-5-5-|
D|-0-------0------------------0-0-0-0-0-0-0-0-5-5-5-5-5-5-|

CHORUS

But you are      the human  strobe   you are the human stobe
E|-0--0-0--0-0--0-0--0-0--0-0--0-0--0-0--0-0--0-0--0-0--0-0--0-0-0-0---|  X2
B|-0--0-0--0-0--0-0--0-0--0-0--0-0--0-0--0-0--0-0--0-0--0-0--0-0-0-0---|
G|-0--0-0--0-0--0-0--0-0--0-0--0-0--0-0--0-0--0-0--0-0--0-0--4-4-4-4---|
D|-12-0-12-0-12-0-12-0-12-0-12-0-12-0-12-0-12-0-12-0-12-0-12-5-5-5-5---|
A|-12-0-12-0-12-0-12-0-12-0-12-0-12-0-12-0-12-0-12-0-12-0-12-5-5-5-5---|

BACK TO VERSE

THEN BRIDGE AGAIN

THEN
              Lets take aim  you're looking the other way
E|-0-0-0-0-0-0-0-0-0-0-0-0-0-0-0-0-0-0-0-0-0-0-0-0-0-0-0-0-0-0-0-0-------|
B|-0-0-0-0-0-0-0-0-0-0-0-0-0-0-0-0-0-0-0-0-0-0-0-0-0-0-0-0-0-0-0-0-------|
G|-0-0-0-0-0-0-0-0-0-0-0-0-0-0-0-0-0-0-0-0-0-0-0-0-0-0-0-0-0-0-0-0-------|
D|-0-0-0-0-0-0-0-0-0-0-0-0-0-0-0-0-0-0-0-0-0-0-0-0-0-0-0-0-0-0-0-0   x 3-|
A|-1-1-1-1-1-1-1-4-4-4-4-4-4-4-8-8-8-8-8-8-8-8-8-8-8-8-9-9-9-9-9-9-------|
D|-1-1-1-1-1-1-1-4-4-4-4-4-4-4-8-8-8-8-8-8-8-8-8-8-8-8-9-9-9-9-9-9-------|

BACK TO CHORUS:

THEN

 (OUTRO)               Lets take aim    i'll help you to do it right
E|-0-0-0-0-0-0           -0-0-0-0-0-0-0-0-0-0-0-0-0-0-0-0-0-0-0-0-0-0-0-|
B|-0-0-0-0-0-0           -0-0-0-0-0-0-0-0-0-0-0-0-0-0-0-0-0-0-0-0-0-0-0-|
G|-0-0-0-0-0-0 x 2       -0-0-0-0-0-0-0-0-0-0-0-0-0-0-0-0-0-0-0-0-0-0-0-|
D|-3-0-7-0-3-0           -4-4-4-4-4-4-4-8-8-8-8-8-8-8-8-8-8-8-9-9-9-9-9-|
A|-3-0-7-0-3-0           -4-4-4-4-4-4-4-8-8-8-8-8-8-8-8-8-8-8-9-9-9-9-9-|
D|-3-0-7-0-3-0           -4-4-4-4-4-4-4-8-8-8-8-8-8-8-8-8-8-8-9-9-9-9-9-|


ONE LAST CHROUS:


THEN OUTRO AGAIN!..........................DONE!
Tap to rate this tab
# A B C D E F G H I J K L M N O P Q R S T U V W X Y Z