Song name
# A B C D E F G H I J K L M N O P Q R S T U V W X Y Z

Biffy Clyro - Get Fucked Stud tab

Biffy Clyro - Get Fucked Stud
Tuning DADF#BE
All done by ear so there might be mistakes
Any questions please mail me at Darrenhoey@hotmail.com



 E -------0---------------------------0-------------|
 B -0h2h3---3p2-----------------0h2h3---3p2---------|
 F#-------------------------------------------------|
 D ------------------4-4-4-4------------------4-4-4-|
 A ------------------2-2-2-2------------------2-2-2-|
 D -------------------------------------------------|

 E -------0-------------------------0------------------|
 B -0h2h3---3p2---------------0h2h3---3p2~-------------|
 F#----------------------------------------------------|
 D ------------------4-4-4-------------------------4-4-|
 A ------------------2-2-2-------------------------2-2-|
 D ----------------------------------------------------|

 E -------0--------------------------------|
 B -0h2h3---3p2----------------------------|
 F#-------------------3-3-3-3-3------------|
 D -------------------0-0-0-0-0--2-2-2-2-2-|
 A ------------------------------0-0-0-0-0-|
 D ----------------------------------------|(not sure how many times these chords here are played)

 E -------------------------------|
 B -------------------------------|
 F#--------------15---------------| (4 amount of times)
 D ------16--------------16-------|
 A --14------14------14-----------|
 D -------------------------------|

 E -------------------------------|
 B --------------14---------------|
 F#--------------15---------------| (4 amount of times)
 D ------16--------------16-------|
 A --14------14------14-----------|
 D -------------------------------|


(Pause)

You have to believe yourself part

 E -------------------------------|
 B -------------------------------|
 F#--------------12---------------| (4 amount of times)
 D ------12--------------12-------|
 A --10------10------10-----------|
 D -------------------------------|

 E -------------------------------|
 B -------------------------------|
 F#-----------12------------------| (4 amount of times)
 D -----------12------------------|
 A -----9------------9------------|
 D --9-----9------9---------------|


 E -------------------------------|
 B -------------------------------|
 F#-----------10------------------| (4 amount of times)
 D -----------9-------------------|
 A -----7------------7------------|
 D --7-----7------7---------------|


 E -------------------------------|
 B -------------------------------|
 F#--------------12---------------| (4 amount of times)
 D ------12--------------12-------|
 A --10------10------10-----------|
 D -------------------------------|


 E -------------------------------|
 B -------------------------------|
 F#--12---------------------------| (Let in ring out)
 D --12---------------------------|
 A --9----------------------------|
 D --9----------------------------|

Chords:
    Get.....Fucked....Stud.its.Time.to.Kill...only
    You.......See.the.sun....set.on.amphetamines
 E ---0-------0--------0--------0-------0----------------------------------|
 B ---7-------10-------0--------0-------0----------------------------------|
 F#---8-------12-------5--------8-------5----------------------------------|
 D ---0-------0--------5--------9-------5----------------------------------|
 A ---0-------0--------x--------x-------x----------------------------------|
 D ---0-------0--------5--------9-------5----------------------------------|

 X2

Each one is strumed.


 E -------------------------------|
 B -------------------------------|
 F#--------------15---------------| (8 amount of times)
 D ------16--------------16-------|
 A --14------14------14-----------|
 D -------------------------------|



 "All hands on, courtesy cunt" part

  e]--------------------------------------------------------------------------|
  B]------------x-x-x-x-----------x-x-x-x-----------x-x-x-x-----------x-x-x---|
 F#]--15--15-15-x-x-x-x-15--15-15-x-x-x-x-15--15-15-x-x-x-x-15--15-15-x-x-x---|
  D]--16--16-16-x-x-x-x-16--16-16-x-x-x-x-14--14-14-x-x-x-x-14--14-14-x-x-x---|
  A]--14--14-14-x-x-x-x-14--14-14-x-x-x-x-0---0--0--x-x-x-x-0---0--0--x-x-x---|
  D]--------------------------------------------------------------------------|

(2 amount of times)

"Pretend to burn in hell to be" Part

 E ---------------------------------------------------------|
 B ---------------------------------------------------------|
 F#---12----12----10----------------------------------------|  (2 Times)
 D ---12----12----9-----------------------------------------|
 A ---10----9-----7-----------------------------------------|
 D ---------9-----7-----------------------------------------|

Each one is strumed

skyline is burning red so we'll

 E ---0-0-0--0-0-0--0--0--0--0--0--0------------|
 B ---0-0-0--0-0-0--0--0--0--0--0--0------------|
 F#---------------------------------------------|
 D ---5-5-5--7-7-7--9--9--9--9--9--9------------|
 A ---5-5-5--7-7-7--9--9--9--9--9--9------------|
 D ---5-5-5--7-7-7--9--9--9--9--9--9------------|

all go down

 E -0-0-0-0-0-0-0-0-0-0-0-0-----|
 B -7-7-7-------0-0-0-0-0-0-----|
 F#-0-0-0-10108-0-0-0-0-0-0-----|
 D -x-x-x-x-x-x-9-9-9-9-9-9-----|
 A -9 9-9-9-9-9-9-9-9-9-9-9-----|
 D -----------------------------|

Follow my head to survive cause it

 E ---0-0-0--0-0-0--0--0--0--0--0--0------------|
 B ---0-0-0--0-0-0--0--0--0--0--0--0------------|
 F#---------------------------------------------|
 D ---2-2-2--4-4-4--9--9--9--9--9--9------------|
 A ---2-2-2--4-4-4--9--9--9--9--9--9------------|
 D ---2-2-2--4-4-4--9--9--9--9--9--9------------|

won't take us long to come round

 E --------------------------|
 B -5-5-5-5-5-5--3-3-3-3-3-3-|
 F#-0-0-0-0-0-0--0-0-0-0-0-0-|
 D -x-x-x-x-x-x--x-x-x-x-x-x-|
 A -7-7-7-7-7-7--5-5-5-5-5-5-|
 D --------------------------|

play this second time round

won't take us long to come round

 E --------------------------------|
 B -5-5-5-5-5-5---7--7--7--7--7--7-|
 F#-0-0-0-0-0-0---0--0--0--0--0--0-|
 D -x-x-x-x-x-x---x--x--x--x--x--x-|
 A -7-7-7-7-7-7---9--9--9--9--9--9-|
 D --------------------------------|

x2

The interlude bit
 E ---------------12--------------|
 B --12--14--15-------15--14------|
 F#-------------------------------|
 D -------------------------------| (4 amoumt of times)
 A -------------------------------|
 D -------------------------------|

 E ---------------12--14--15--17--15--14--12-----------|
 B --12--14--15---------------------------------15--14-|
 F#----------------------------------------------------|  (1 amount of times)
 D ----------------------------------------------------|
 A ----------------------------------------------------|
 D ----------------------------------------------------|

 E ---------------12--------------|
 B --12--14--15-------15--14------|
 F#-------------------------------|
 D -------------------------------| (6 amoumt of times)
 A -------------------------------|
 D -------------------------------|

 E ---------------12--14--15--17--15--14--12-----------|
 B --12--14--15---------------------------------15--14-|
 F#----------------------------------------------------|  (2 amount of times)
 D ----------------------------------------------------|
 A ----------------------------------------------------|
 D ----------------------------------------------------|

(Pause)
GET FUCKED STUD



 E  ----0--------0-------0----------------------------------|
 B  ----0--------0-------0----------------------------------|
 F# ----5--------8-------5----------------------------------|
 D  ----5--------9-------5----------------------------------|
 A -----x--------x-------x----------------------------------|
 D -----5--------9-------5----------------------------------|

 E ---0-------0--------0--------0-------0----------------------------------|
 B ---7-------10-------0--------0-------0----------------------------------|
 F#---8-------12-------5--------8-------5----------------------------------|
 D ---0-------0--------5--------9-------5----------------------------------|
 A ---0-------0--------x--------x-------x----------------------------------|
 D ---0-------0--------5--------9-------5----------------------------------|




skyline is burning red so we'll

 E ---0-0-0--0-0-0--0--0--0--0--0--0------------|
 B ---0-0-0--0-0-0--0--0--0--0--0--0------------|
 F#---------------------------------------------|
 D ---5-5-5--7-7-7--9--9--9--9--9--9------------|
 A ---5-5-5--7-7-7--9--9--9--9--9--9------------|
 D ---5-5-5--7-7-7--9--9--9--9--9--9------------|

all go down

 E -0-0-0-0-0-0-0-0-0-0-0-0-----|
 B -7-7-7-------0-0-0-0-0-0-----|
 F#-0-0-0-10108-0-0-0-0-0-0-----|
 D -x-x-x-x-x-x-9-9-9-9-9-9-----|
 A -9 9-9-9-9-9-9-9-9-9-9-9-----|
 D -----------------------------|

Follow my head to survive cause it

 E ---0-0-0--0-0-0--0--0--0--0--0--0------------|
 B ---0-0-0--0-0-0--0--0--0--0--0--0------------|
 F# --------------------------------------------|
 D ---2-2-2--4-4-4--9--9--9--9--9--9------------|
 A ---2-2-2--4-4-4--9--9--9--9--9--9------------|
 D ---2-2-2--4-4-4--9--9--9--9--9--9------------|

won't take us long to come round

 E --------------------------|
 B -5-5-5-5-5-5--3-3-3-3-3-3-|
 F#-0-0-0-0-0-0--0-0-0-0-0-0-|
 D -x-x-x-x-x-x--x-x-x-x-x-x-|
 A -7-7-7-7-7-7--5-5-5-5-5-5-|
 D --------------------------|

x2

play this second time round

won't take us long to come round

 E --------------------------------|
 B -5-5-5-5-5-5---7--7--7--7--7--7-|
 F#-0-0-0-0-0-0---0--0--0--0--0--0-|
 D -x-x-x-x-x-x---x--x--x--x--x--x-|
 A -7-7-7-7-7-7---9--9--9--9--9--9-|
 D --------------------------------|



 E -------0---------------------------0-------------|
 B -0h2h3---3p2-----------------0h2h3---3p2---------|
 F#-------------------------------------------------|
 D ------------------4-4-4-4------------------4-4-4-|
 A ------------------2-2-2-2------------------2-2-2-|
 D -------------------------------------------------|

 E -------0--------------------------------------------|
 B -0h2h3---3p2----------------------------------------|
 F#----------------------------------------------------|
 D ------------------4-4-4-------------------------4-4-|
 A ------------------2-2-2-------------------------2-2-|
 D ----------------------------------------------------|
Tap to rate this tab
# A B C D E F G H I J K L M N O P Q R S T U V W X Y Z