Song name
# A B C D E F G H I J K L M N O P Q R S T U V W X Y Z

Biffy Clyro - Christophers River tab

This is my first tab attempp so hopefully you will enjoy...

one of my favourite songs off of the blackened sky album

Christopher's River


I've read the tabs for this and none are quite right so i tabbed it out for myself and i 
id share it... i know it's always said but this is definitely the closest tab to the 
pretty sure its 100% accurate... Tabbed By: Andy-Cull

Christopher's River
Biffy Clyro


Intro

e]--------|
b]--------|
g]2-2-2-2-|
d]4-4-4-4-|
a]--------|
d]--------|

Verse

e]------------------------------------------|
b]---------0---------0---------0------------|
g]---------------------------------------0--|
d]-5-5-5-5---5-5-5-5---2-2-2-2---4-4-4-4----|
a]------------------------------------------| x6
d]------------------------------------------|

Chorus

e]-----------------------------------------------------------|
b]-----------1-0-------------3------------5------------7-----|
g]-----0---------0--------0----0-------5----7-5------7---7---|
d]---2---2---------2----4---0--------5---5-----7---7--7---7--|
a]-3------------------5-----------7--------------9-----------| x4
d]-----------------------------------------------------------|

Back to Verse x2

Then:

e--------------------------------------------------|
b--------------------------------------------------|
g-----------------------0-0-0-0---2-2-2-2----------|
d---5-5-5-5---5-5-5-5---2-2-2-2---4-4-4-4----------|
a--------------------------------------------------|
d--------------------------------------------------|

Back to Chorus

Bridge

e]--------------------------------------|
b]-8-8-8-8-8-8-8-8-8-8-8-8-8-8-8-8------|
g]-7-7-7-7-7-7-7-7-7-7-7-7-7-7-7-7------|
d]-5-5-5-5-5-5-5-5-5-5-5-5-5-5-5-5------|
a]-5-5-5-5-5-5-5-5-5-5-5-5-5-5-5-5------|
d]-5-5-5-5-5-5-5-5-5-5-5-5-5-5-5-5------|

e]---------------------------------|
b]-8-8-8-8-8-8-8-8-8-8-8-8-8-8-8-8-|
g]-7-7-7-7-7-7-7-7-7-7-7-7-7-7-7-7-|
d]-9-9-9-9-9-9-9-9-9-9-9-9-9-9-9-9-|
a]-7-7-7-7-7-7-7-7-7-7-7-7-7-7-7-7-|
d]---------------------------------|

e]---------------------------------|
b]-13-13-13-13-13-13-13-13-13-13---|
g]-12-12-12-12-12-12-12-12-12-12---|
d]-10-10-10-10-10-10-10-10-10-10---|
a]-10-10-10-10-10-10-10-10-10-10---|
d]-10-10-10-10-10-10-10-10-10-10---|

e]---------------------------------|
b]---------------------------------|
g]-11-11-11-11-11-11-11-11-11-11---|
d]-9--9--9--9--9--9--9--9--9--9----|
a]-9--9--9--9--9--9--9--9--9--9----|
d]-9--9--9--9--9--9--9--9--9--9----|

Repeat x5

Solo (If that's what you'd call it)

e]--------------------------------|
b]--------------------------------|
g]--12-12-12-12-12-12-12-12-------|
d]---9--9--9--9--9--9--9--9-------|
a]--10-10-10-10-10-10-10-10-------|
d]--------------------------------|

e]--------------------------------|
b]--12-12-12-12-10----------------|
g]-----------------12-------------|
d]---9--9--9--9-----9-------------|
a]--10-10-10-10-10-10-------------|
d]--------------------------------|

Repeat

e]--------------------------------|
b]--------------------------------|
g]--12-12-12-12-12-12-12-12-------|
d]---9--9--9--9--9--9--9--9-------|
a]--------------------------------|
d]--10-10-10-10-10-10-10-10-------|

e]--------------------------------|
b]--12-12-12-12-10----------------|
g]-----------------12-------------|
d]---9--9--9--9-----9-------------|
a]--------------------------------|
d]--10-10-10-10-10-10-------------|

Repeat

e]-----------------------------------------------------|
b]--12-12-12-12-12-12-13-13-13-13-12-10-13-13-13-13-13-|
g]--12-12-12-12-12-12-12-12-12-12-12-12-12-12-12-12-12-|
d]--10-10-10-10-10-10-10-10-10-10-10-10-10-10-10-10-10-|
a]--------------------------10-10-10-10-10-10-10-10-10-|
d]--------------------------10-10-10-10-10-10-10-10-10-|


e]--------------------------------------------|
b]----10-12-10----10-12-10--------------------|
g]-12----------12----------12-----------------|
d]--------------------------------------------|
a]-10-10-10-10-10-10-10-10-10-----------------| x2
d]--------------------------------------------|

e]----------------------------------------------------|
b]-12-12-12-12-12-12-13-13-13-13-12-10-13-13-13-13-13-|
g]-12-12-12-12-12-12-12-12-12-12-12-12-12-12-12-12-12-|
d]-10-10-10-10-10-10-10-10-10-10-10-10-10-10-10-10-10-|
a]-------------------------10-10-10-10-10-10-10-10-10-|
d]-------------------------10-10-10-10-10-10-10-10-10-|

e]------|
b]------|
g]-9----|
d]-9----|
a]-7----|
d]------|
Tap to rate this tab
# A B C D E F G H I J K L M N O P Q R S T U V W X Y Z