Song name
# A B C D E F G H I J K L M N O P Q R S T U V W X Y Z

Biffy Clyro - 27 tab

Biffy Clyro - 27

INTRO VERSE
E|------------------------------------------------------------
B|------------------------------------------------------------
G|------------------------------------------------------------
D|------------------------------------------------------------   
A|77775555999977777777555599997777----------------------------
D|55555555000000005555555500000000----------------------------

CHORUS
E|------------------------------------------------------------
B|------------------------------------------------------------
G|-----------------------11\9999\77---------------------------
D|----------------11------------------------------------------ 2 times
A|10------12------9-------9\7777\55---------------------------
D|9-------11------0-------------------------------------------

VERSE
E|------------------------------------------------------------
B|------------------------------------------------------------
G|------7/11--9---------7/11--9-------------------------------
D|------------------------------------------------------------
A|77775555999977777777555599997777----------------------------
D|55555555000000005555555500000000----------------------------

VERSE (full distortion)
E|------------------------------------------------------------
B|------------------------------------------------------------
G|------7/11--9---------7/11--9-------------------------------repeat alot... 
D|------------------------------------------------------------
A|77775555999977777777555599997777----------------------------
D|55555555000000005555555500000000----------------------------

SOLO
E|-----------------------------------------------------------------------------
B|-----------------------------------------------------------------------------
G|-----------------------------------------------------------------------------
D|/12---11--12---11--12--11-\-7--11-12---12/14\12---11-12--11--12-/14/16\-12\--
A|-----------------------------------------------------------------------------
D|-----------------------------------------------------------------------------

Finish

E----------------------------------
B----------------------------------
G----------------------------------
D-5-5-5-5-5------------------------
A-5-5-5-5-5------------------------
D-5-5-5-5-5------------------------

Enjoy
Tap to rate this tab
# A B C D E F G H I J K L M N O P Q R S T U V W X Y Z