Song name
# A B C D E F G H I J K L M N O P Q R S T U V W X Y Z

Biffy Clyro - The Go-slow tab

Help us improve GuitareTab! Take a short survey!
INTRO
E|x-x-x-x-----------------------------------------------------
B|x-x-x-x-----------------------------------------------------
G|x-x-x-x-9-9-2-2-9-9-2-2-------------------------------------
D|x-x-x-x-7-7-0-0-7-7-0-0-------------------------------------x1
A|x-x-x-x-7-7-0-0-7-7-0-0-------------------------------------
D|x-x-x-x-7-7-0-0-7-7-0-0-------------------------------------

E|------------------------------------------------------------
B|------------------------------------------------------------
G|10--9---9---9---10--9---9-9-9-9-10--9---9---9---3-----------x1
D|8---8---7---0---8---8---7-0-7-0-8---8---7---0---1-----------
A|8---8---7---0---8---8---7-0-7-0-8---8---7---0---1-----------
D|8---8---7---0---8---8---7-0-7-0-8---8---7---0---1-----------

E|----------------------------------------------4-------------
B|----------------------------------------------4-------------
G|----19-------19-------17-------17-------------4-------------x1
D|0-15--15-0-15--15-0-15--15-0-15--15---3---830-4-------------
A|--------------------------------------3---830-4-------------
D|--------------------------------------3---830-4-------------
                                                ^harmonics

VERSE
E|------------------------------------------------------------
B|------------------------------------------------------------
G|----17-------17-------15-------15-------17-------17---------
D|0-15--15-0-15--15-0-15--15-0-15--15-0-14--14-0-14--14-------
A|------------------------------------------------------------
D|------------------------------------------------------------

E|------------------------------------------------------------
B|------------------------------------------------------------
G|----19-------19-------17^19-------17^19-------15-------15---
D|0-15--15-0-15--15-0-15-----15-0-15-----15-0-15--15-0-15--15-
A|------------------------------------------------------------
D|------------------------------------------------------------

E|------------------------------------------------------------
B|------------------------------------------------------------
G|----17-------17---------------------------------------------x1
D|0-14--14-0-14--14-------------------------------------------
A|------------------------------------------------------------
D|------------------------------------------------------------

                           Bass


BRIDGE
E|----------------------------------------------------------4-
B|----------------------------------------------------------4-
G|--------12---------------9---------------12---------------4-
D|0-------10-------0---------------0-------10-------0-------4-1x
A|0-------10-------0-------7-------0-------10-------0-------4-
D|0-------10-------0---------------0-------10-------0-------4-
                                                            ^harmonics


CHORUS
E|------------------------------------------------------------
B|------------------------------------------------------------
G|10--9---9---9---10--9---99997775-10--9---9---9--------------x1
D|8---8---7---0---8---8---77775553-8---8---7---0--------------
A|8---8---7---0---8---8---77775553-8---8---7---0--------------
D|8---8---7---0---8---8---77775553-8---8---7---0--------------


E|-------------------------------4-----------------------------
B|-------------------------------4-----------------------------
G|3-------10------3--------------4-----------------------------
D|1-------8-------1-------0------4-----------------------------x1
A|1-------8-------1-------0------4-----------------------------
D|1-------8-------1-------0------4-----------------------------
                                 ^harmonics

VERSE
E|------------------------------------------------------------
B|------------------------------------------------------------
G|----17-------17-------15-------15-------17-------17---------
D|0-15--15-0-15--15-0-15--15-0-15--15-0-14--14-0-14--14-------
A|------------------------------------------------------------
D|------------------------------------------------------------

E|------------------------------------------------------------
B|------------------------------------------------------------
G|----19-------19-------17^19-------17^19-------15-------15---
D|0-15--15-0-15--15-0-15-----15-0-15-----15-0-15--15-0-15--15-
A|------------------------------------------------------------
D|------------------------------------------------------------

E|------------------------------------------------------------
B|------------------------------------------------------------
G|----17-------17-----17--------------------------------------x1
D|0-14--14-0-14--14---14--------------------------------------
A|------------------------------------------------------------
D|------------------------------------------------------------

E|------------------------------------------------------------------x2
B|------------------------------------------------------------------
G|----------------17151415171514151715141517151415171514151715141517bass
D|----------------------------------------------------------------14
A|------------------------------------------------------------------
D|0-------0-------10--------------8---------------10----------------


BRIDGE
E|----------------------------------------------------------4-
B|----------------------------------------------------------4-
G|--------12---------------9---------------12---------------4-
D|0-------10-------0---------------0-------10-------0-------4-x1
A|0-------10-------0-------7-------0-------10-------0-------4-
D|0-------10-------0---------------0-------10-------0-------4-
                                                            ^harmonics

CHORUS
E|------------------------------------------------------------
B|------------------------------------------------------------
G|10--9---9---9---10--9---99997775-10--9---9---9--------------
D|8---8---7---0---8---8---77775553-8---8---7---0--------------x1
A|8---8---7---0---8---8---77775553-8---8---7---0--------------
D|8---8---7---0---8---8---77775553-8---8---7---0--------------



E|-------------------------------------------------------------
B|-------------------------------------------------------------
G|3-------10------3--------------------------------------------
D|1-------8-------1-------0------------------------------------x1
A|1-------8-------1-------0------------------------------------
D|1-------8-------1-------0------------------------------------


MID-SECTION
E|------------------------------------------------------------
B|------------------------------------------------------------
G|5---7---9---10--12--14--16--17-9----------------------------
D|------------------------------------------------------------x1
A|3---5---7---8---10--12--14--15-7----------------------------
D|----0-------0-------0---------------------------------------

OUTRO
E|------------------------------------------------------------
B|------------------------------------------------------------
G|2-2-2-2------17---9-17---9-99-------------------------------
D|0-0-0-0-----------------------------------------------------x1
A|0-0-0-0------15---7-15---7-77-------------------------------
D|0-0-0-0-----------------------------------------------------


remember when the insects fed off all our moments
you can't deny, the structures failed us in the go-slow

love with them would kill her now
catch me i'm falling down
love with them would kill her now

decrease the movements
would you?
switch transition, switch transition
decrease the movement
love me 'til i die
i don't expect much

remember the time we lost ourselves to being lonely
without love we sing and dance and kill together

love with them would kill her now
catch me i'm falling down
love with them would kill her now

decrease the movements
would you?
switch transition, switch transition
decrease the movement
love me 'til i die
i don't expect much

catch me i'm falling down
catch me i'm falling down
catch me i'm falling down
catch me i'm falling

the go-slow
the go-slow
the go-slow
Related for The Go-slow tab