Song name
# A B C D E F G H I J K L M N O P Q R S T U V W X Y Z

Biffy Clyro - Scary Mary tab

Intro / Verse 1

e]-0-0-0-0-0-0-0-0-0-0-0-0-0-0-0-0-|
b]-1-1-1-1-0-0-0-0-1-1-1-1-1-1-1-1-|
g]-0-0-0-0-0-0-0-0-0-0-0-0-0-0-0-0-|
d]-2-2-2-2-2-2-2-2-3-3-3-3-3-3-3-3-|
a]-3-3-3-3-3-3-3-3-----------------|
d]-----------------3-3-3-3-3-3-3-3-|

e]-0-0-0-0-0-0-0-0-0-0-0-0-0-0-0-0-|
b]-5-5-5-5-5-5-5-5-1-1-1-1-1-1-1-1-|
g]-0-0-0-0-0-0-0-0-0-0-0-0-0-0-0-0-|
d]-7-7-7-7-7-7-7-7-3-3-3-3-3-3-3-3-|
a]---------------------------------|
d]-7-7-7-7-7-7-7-7-3-3-3-3-3-3-3-3-|

Repeat x3

Break

e]-0-0-0-0-0-0-0-0-0-0-0-----------|
b]-3-3-3-5-5-5-1-1-1-1-1-----------|
g]-0-0-0-0-0-0-0-0-0-0-0-----------|
d]-5-5-5-7-7-7-3-3-3-3-3-----------|
a]---------------------------------|
d]-5-5-5-7-7-7-3-3-3-3-3-----------|

Verse 2

e]-0-0-0-0-0-0-0-0-0-0-0-0-0-0-0-0-|
b]-1-1-1-1-0-0-0-0-1-1-1-1-1-1-1-1-|
g]-0-0-0-0-0-0-0-0-0-0-0-0-0-0-0-0-|
d]-2-2-2-2-2-2-2-2-3-3-3-3-3-3-3-3-|
a]-3-3-3-3-3-3-3-3-----------------|
d]-----------------3-3-3-3-3-3-3-3-|

e]-0-0-0-0-0-0-0-0-0-0-0-----------|
b]-3-3-3-5-5-5-1-1-1-1-1-----------|
g]-0-0-0-0-0-0-0-0-0-0-0-----------|
d]-5-5-5-7-7-7-3-3-3-3-3-----------|
a]---------------------------------|
d]-5-5-5-7-7-7-3-3-3-3-3-----------|

Repeat

e]-0-0-0-0-0-0-0-0-0-0-0-----------|
b]-3-3-3-5-5-5-1-1-1-1-1-----------|
g]-0-0-0-0-0-0-0-0-0-0-0-----------|
d]-5-5-5-7-7-7-3-3-3-3-3-----------|
a]---------------------------------|
d]-5-5-5-7-7-7-3-3-3-3-3-----------|

Chorus

e]-0-0-0-0-0-0-0-0-0-0-0-0-0-0-0---|
b]-0-0-0-0-0-0-0-0-0-0-0-0-0-0-0---|
g]-0-0-0-0-0-0-0-0-0-0-0-0-0-0-0---|
d]-2-2-2-2-2-2-2-2-2-2-2-2-2-2-2---|
a]---------------------------------|
d]-2-2-2-2-2-2-2-2-2-2-2-2-2-2-2---|

e]-0-0-0-0-0-0-0-------------------|
b]-1-1-1-1-3-0-0-------------------|
g]-0-0-0-0-0-0-0-------------------|
d]-3-3-3-3-5-2-2-------------------|
a]---------------------------------|
d]-3-3-3-3-5-2-2-------------------|

Repeat x3

e]-0-0-0-0-0-0-0-0-0-0-0-0-0-0-0---|
b]-0-0-0-0-0-0-0-0-0-0-0-0-0-0-0---|
g]-0-0-0-0-0-0-0-0-0-0-0-0-0-0-0---|
d]-2-2-2-2-2-2-2-2-2-2-2-2-2-2-2---|
a]---------------------------------|
d]-2-2-2-2-2-2-2-2-2-2-2-2-2-2-2---|

d]-0-0-0-0-0-0-0-------------------|
a]-1-1-1-1-3-5-7-------------------|
g]-0-0-0-0-0-0-0-------------------|
d]-3-3-3-3-5-7-9-------------------|
a]---------------------------------|
d]-3-3-3-3-5-7-9-------------------|

Outro
(For the 2nd guitar pick out notes from the chords below)

d]-0--0--0--0--0--0--0--0--0-------|
a]-8--8--8--8--8--8--8--8--8-------|
g]-0--0--0--0--0--0--0--0--0-------|
d]-10-10-10-10-10-10-10-10-10------|
a]---------------------------------|
d]-10-10-10-10-10-10-10-10-10------|

d]-0--0--0--0--0--0--0--0--0-------|
a]-8--8--8--8--8--8--8--8--8-------|
g]-0--0--0--0--0--0--0--0--0-------|
d]-10-10-10-10-10-10-10-10-10------|
a]---------------------------------|
d]-9--9--9--9--9--9--9--9--9-------|

d]-0-0-0-0-0-0-0-0-0-0-0-0-0-0-0--|
a]-1-1-1-1-1-1-1-1-1-1-1-1-5-5-7--|
g]-0-0-0-0-0-0-0-0-0-0-0-0-0-0-0--|
d]-3-3-3-3-3-3-3-3-3-3-3-3-7-7-9--|
a]--------------------------------|
d]-3-3-3-3-3-3-3-3-3-3-3-3-7-7-9--|

Repeat x3

d]-0--0--0--0--0--0--0--0--0-------|
a]-8--8--8--8--8--8--8--8--8-------|
g]-0--0--0--0--0--0--0--0--0-------|
d]-10-10-10-10-10-10-10-10-10------|
a]---------------------------------|
d]-10-10-10-10-10-10-10-10-10------|

d]---------------------------------|
a]---------------------------------|
g]-12-12-12-12-12-12-12-12-12------|
d]-10-10-10-10-10-10-10-10-10------|
a]-10-10-10-10-10-10-10-10-10------|
d]-9--9--9--9--9--9--9--9--9-------|

d]-0--0--0--0--0--0--0--0--0-------|
a]-8--8--8--8--8--8--8--8--8-------|
g]-0--0--0--0--0--0--0--0--0-------|
d]-10-10-10-10-10-10-10-10-10------|
a]---------------------------------|
d]-9--9--9--9--9--9--9--9--9-------|

d]-0-0-0-0-0-0-0-0-0-0-0-0-0-0-0--0--|
a]-1-1-1-1-1-1-1-1-1-1-1-1-5-5-5--1--|
g]-0-0-0-0-0-0-0-0-0-0-0-0-0-0-0--0--|
d]-3-3-3-3-3-3-3-3-3-3-3-3-7-7-7--2--|
a]--------------------------------3--|
d]-3-3-3-3-3-3-3-3-3-3-3-3-7-7-7-----|
Tap to rate this tab
# A B C D E F G H I J K L M N O P Q R S T U V W X Y Z