Guitaretab - guitar tabs
Song name
# A B C D E F G H I J K L M N O P Q R S T U V W X Y Z

Biffy Clyro - Justboy tab

Song: Justboy
Artist: Biffy Clyro
Album: Blackened Sky

Tabbed by: Gary the Hann
Email: Ckyfan1@hotmail.com

Tuning: Drop D


Intro
e|---------------------------------------------------|
B|---------------------------------------------------|
G|------------6666666666/7---------------------------|
D|-[Feedback]-6666666666/7-555555555-44444-5-4----0--|
A|------------4444444444/5-555555555-44444-5-4-/7-0--|
D|-------------------------555555555-44444-5-4----0--|

Verse Pt I
e|-------------------------------------|--|-------------------------------|
B|-------------------------------------|--|-------------------------------|
G|-------------------------------------|x4|-------------------------------|
D|---77--77--77----77--77--77--77--77--|--|---77--77--77--77--7777777777--|
A|--5---5---4---4h5---5---5---5---5----|--|--5---5---44h5----5555555555--|
D|--------------------5---5---5---5----|--|-------------------5555555555--|

Verse Pt II
e|-------------------------------------|
B|-------------------------------------|
G|-------------------------------------|
D|---77--77--77----77--77--77--77--77--|
A|--5---5---4---4h5---5---5---5---5----|
D|--------------------5---5---5---5----|

Pre-Chorus
E|-----------------------|
B|-----------------------|x1
G|-----------------------|
D|--2222-5555-2222-5555--|
A|--2222-5555-2222-5555--|
D|--2222-5555-2222-5555--|

Chorus
E|-------------------------------------------------------------------|
B|-------------------------------------------------------------------|
G|--77777777777-6666666/7777----------------------11----9-----7------|
D|--77777777777-xxxxxxx/xxxx-55555555555555555555-9-x10-7-x10-5-x10--|
A|--55555555555-4444444/5555-55555555555555555555-9-----7-----5------|
D|---------------------------55555555555555555555-9-----7-----5------|
[ Tab from: http://www.guitaretab.com/b/biffy-clyro/30419.html ]
Bridge Pt I
e|---------------------------------------------------------------|
B|---------------------------------------------------------------|
G|--666666666-777777777-222222222-999999999----------------------|
D|--444444444-555555555-000000000-777777777-777777777-555555555--|
A|--444444444-555555555-000000000-777777777-444444444-555555555--|
D|--444444444-555555555-000000000-777777777-444444444-555555555--|

Bridge Pt II
e|--------------------------------------------------------------------------|
B|--------------------------------------------------------------------------|
G|------777777777777777777777777777666666666---------------------7777679----|
D|------444444444555555555000000000777777777-777777777-555555555-xxxxxxx-0--|
A|------444444444555555555000000000777777777-444444444-555555555-5555457-0--|
D|-//\\-444444444555555555000000000777777777-444444444-555555555---------0--|

Outro Pt I
e|-----------------------------------------------|
B|-----------------------------------------------|
G|-----------------------------------------------|
D|--0000000000-7777777777-4444444444-5555555555--|
A|--0000000000-7777777777-4444444444-5555555555--|
D|--0000000000-7777777777-4444444444-5555555555--|

Outro Pt II
e|------------------------------------------------------------------------|
B|------------------------------------------------------------------------|
G|--2222222222222222--------------------9---------------------------------|
D|--0000000000000000-111111111111-12-11-x-11-12-11-4444444444444444-5--0--|
A|--0000000000000000-7-7-7-7-7-7--7--7--7-7--7--7--4444444444444444-5--0--|
D|--0000000000000000-7-7-7-7-7-7--7--7--7-7--7--7--4444444444444444-5--0--|

Song Formation

Intro x1
Verse Pt I x1
Verse Pt II x4
Pre-Chorus x1
Chorus x2
Verse Pt II x5
Pre-Chorus x1
Chorus x2
Bridge Pt I x2
Bridge Pt II x1
Outro Pt I x3
Outro Pt II x1

| /  slide up
| \  slide down
| h  hammer-on
| p  pull-off
| ~  vibrato
| +  harmonic
| x  Mute note

Related for Justboy tab