Song name
# A B C D E F G H I J K L M N O P Q R S T U V W X Y Z

Biffy Clyro - Hiya tab

This song is in drop C

For the verses, pre choruses and choruses i haven't put the amount of time each chord is 
played, you can easily work that out for yourself.

Intro
D|----------------------------------------------------------------------|
A|----------------------------------------------------------------------|
F|----------------------------------------------------------------------|
C|----------------------------0-0-0---------7--10--------12-------------|  x2
G|---7-H-10-----10--/12------0-0-0---------7--10--------12---(x12)------|
C|---7-H-10------------------0-0-0---------7--10--------12--------------|



|--------------------------------|
|--------------------------------|
|--------------------------------|
|--------------------------------|
|----------7-H-10-----10---------|
|----------7-H-10----------------|



Verse
I'm gonna leave you, unless we fly together and……..
|--------------------------------|
|--------------------------------|
|-------10-----------------------|
|-------10--------------12-------|
|-------8---------------12-------|
|-----------------------12-------|

Pre Chorus
Cos I am going to save the world for……
|------------------------------|
|------------------------------|
|------------------------------|
|------5--8--12--10------------|      x2
|------5--8--12--10------------|
|------5--8--12--10------------|



Chorus
We could fly together and leave this town.
|----------------------------|
|----------------------------|
|----------------------------|
|-----3----7----8------------|
|-----3----7----8------------|
|-----3----7----8------------|

 Jump higher than we ever have, don't look down.
|---------------------------|
|---------------------------|
|---------------------------|
|-----0---7---8-------------|
|-----0---7---8-------------|
|-----0---7---8-------------|

 Look at the starless night, we could shine forever and
|-----------------------------|
|-----------------------------|
|-----------------------------|
|-----3-------5---------------|
|-----3-------5---------------|
|-----3-------5---------------|

 Won't you please take my hand?
|-----------------------------|
|-----------------------------|
|-----------------------------|
|-----0------10-----8---------|
|-----0------10-----8---------|
|-----0------10-----8---------|


|-----------------------------------|
|-----------------------------------|
|-----------------------------------|
|-----------------------------------|
|-----7-H-10-----10-----------------|
|-----7-H-10------------------------|



Verse
 I will relieve you, if we climb together and……..
|------------------------------------|
|------------------------------------|
|-------10---------------------------|
|-------10--------------12-----------|
|-------8----------------12----------|
|------------------------12----------|


Pre Chorus
Cos I am going to save the world for……
|-----------------------|
|-----------------------|
|-----------------------|
|------5--8--12--10-----|      x2
|------5--8--12--10-----|
|------5--8--12--10-----|


Chorus

Instrumental
|----------------------------------------------------------------------|
|----------------------------------------------------------------------|
|----------------------------------------------------------------------|
|----------------------------0-0-0---------7--10--------12-------------|  x4
|---7-H-10-----10--/12------0-0-0---------7--10--------12---(x12)------|
|---7-H-10------------------0-0-0---------7--10--------12--------------|


Chorus (less distortion)

Chorus (the first two parts change to this then the rest is the same)

|-------------------------------------------------------|
|-------------------------------------------------------|
|-------------------------------------------------------|
|-----------------------------------3---7---8-----------|
|-----7-H-10-----10--/12-----------3---7---8------------|
|-----7-H-10-----------------------3---7---8------------|


|-------------------------------------------------------|
|-------------------------------------------------------|
|-------------------------------------------------------|
|-----------------------------------0---7---8-----------|
|-----7-H-10-----10--/12-----------0---7---8------------|
|-----7-H-10-----------------------0---7---8------------|

then continue chorus as normal. repeat the last part of the chorus then end.


hope you enjoyed the song!
Tap to rate this tab
# A B C D E F G H I J K L M N O P Q R S T U V W X Y Z