Song name
# A B C D E F G H I J K L M N O P Q R S T U V W X Y Z

Biffy Clyro - Little Soldiers tab

Awesome song from Mountains single.
First tab. Not 100% but the only tab of the full song.

(Main riff)
e|----------------------------------|----------------------------------|
B|----------------------------------|-------------------3--------------|
G|---4-0---0---0---0-5-4-5---4-0--0-|---4-0---0---0-------0------0-----|
D|-------0---4---4---------------0--|-------2---4---4-------2--4---4p0-|
A|----------------------------------|----------------------------------|
E|----------------------------------|----------------------------------|

(Verse)
I'll always say I'm sorry...
e|--10-8-7-------7---10-8-7-------7--|--------0---------0----------------|
B|--------10-8-10----------10-8-10---|----------0---------0--------------|
G|-----------------------------------|-----------------------------------|
D|-----------------------------------|-----------------------------------|
A|-----------------------------------|-----------------------------------|
E|-----------------------------------|-----------------------------------| x2

(Chorus)
In the summertime...
e|----------------------------------|----------------------------------|
B|-------------------3--------------|----------------------------------|
G|---------0---0-------0------0-----|---4-0---0---0---0-5-4-5---4-0--0-|
D|-------2---4---4-------2--4---4p0-|-------0---4---4---------------0--|
A|----------------------------------|----------------------------------|
E|----------------------------------|----------------------------------|

And back at home...
E|----------------------------------|---5------5------5------5---------|
B|----------------------------------|------0-1----0-1----0-1----0-1----|
G|---4--0---4--0---5--2---5--2------|----------------------------------|
D|--------2------2------2------2----|----------------------------------|
A|----------------------------------|----------------------------------|
E|----------------------------------|----------------------------------|

(Main riff)

(Verse)

(Chorus)

(Solo) - Played over verse riff
e|-------------------|----------------------|----------------------|
B|-------------------|----------------------|----------------------|
G|-4--7-0--4---------|--4--7-0--4-----------|--4--7-0--7-5---------|
D|-----------2-------|-0----------2---------|-0--------------------|
A|-------------------|----------------------|----------------------|
E|-------------------|----------------------|----------------------|
Tap to rate this tab
# A B C D E F G H I J K L M N O P Q R S T U V W X Y Z