Song name
# A B C D E F G H I J K L M N O P Q R S T U V W X Y Z

Biffy Clyro - Hero Management tab

Hero Management - Biffy Clyro

One of my favourites off their first album.
I'm pretty sure its right but there was some points near the end that I was unsure of.
But having said that i think it's right.

ENJOY!!!



Tuning:DADGBe

|-------------------------------------------------------------------------|
|----0~~------------------------------------------------------------------|
|------5~~----------------------------------------------------------------|
|--3~~--------------------------------------------------------------------|
|-------------------------------------------------------------------------|
|-------------------------------------------------------------------------|
           Iron man, I return to you, to be the way you wanted


|-------------------------------------------------------------------------|
|-------------------------------------------------------------------------|
|----0~~------------------------------------------------------------------|
|------5~~----------------------------------------------------------------|
|--3~~--------------------------------------------------------------------|
|-------------------------------------------------------------------------|
           But I have no strength or the decency in me to be a hero


|-------------------------------------------------------------------------|
|-------------------------------------------------------------------------|
|------0~~----------------------------------------------------------------|
|----3~~------------------------------------------------------------------|
|--3~~--------------------------------------------------------------------|
|-------------------------------------------------------------------------|
           But we still fall down, yeah you'll still fall down


|-------------------------------------------------------------------------|
|----0-----0-----0-----0-----0--------------------------------------------|
|------5-----5-----5-----5-----5-----5-----5-----5-----5-----5------------|
|--3-----3-----3-----3-----3-----------6-----6-----6-----6-----6----------|
|----------------------------------4-----4-----4-----4-----4--------------|
|-------------------------------------------------------------------------|



|-------------------------------------------------------------------------|
|-------------------------------------------------------------------------|
|----5-----5-----0-----4-----4-----0-----2-----2-----2-----2-----2--------|
|------6-----6-----------5-----5-----------4-----4-----4-----4-----4------|
|--------------------------------------5-----5-----5-----5-----5----------|
|--6-----6-----6-----5-----5-----5----------------------------------------|



|-------------------------------------------------------------------------|
|----0-----0-----0-----0-----0--------------------------------------------|
|------5-----5-----5-----5-----5-----5-----5-----5-----5-----5------------|
|--3-----3-----3-----3-----3-----------6-----6-----6-----6-----6----------|
|----------------------------------4-----4-----4-----4-----4--------------|
|-------------------------------------------------------------------------|
                      Iron man,               I refuse to be the way 


|-------------------------------------------------------------------------|
|-------------------------------------------------------------------------|
|----5-----5-----0-----4-----4-----4-----2-----2-----2-----2-----2--------|
|------6-----6-----------5-----5-----------4-----4-----4-----4-----4------|
|--------------------------------------5-----5-----5-----5-----5----------|
|--6-----6-----6-----5-----5-----5----------------------------------------|
                  that you           would want me



|-------------------------------------------------------------------------|
|----0-----0-----0-----0-----0--------------------------------------------|
|------5-----5-----5-----5-----5-----5-----5-----5-----5-----5------------|
|--3-----3-----3-----3-----3-----------6-----6-----6-----6-----6----------|
|----------------------------------4-----4-----4-----4-----4--------------|
|-------------------------------------------------------------------------|
                  Still I've got no strength   but the sense in me 



|-------------------------------------------------------------------------|
|-------------------------------------------------------------------------|
|----5-----5-----0-----4-----4-----0-----2-----2-----2-----0-----2--------|
|------6-----6-----------5-----5-----------4-----4-----4-----4-----4------|
|--------------------------------------5-----5-----5-----5-----5----------|
|--6-----6-----6-----5-----5-----5----------------------------------------|
  to see          I'm not            a hero


|-------------------------------------------------------------------------|
|-------------------------------------------------------------------------|
|------0~~--------------------------------0~~-------0~~-------0~~---------|
|----3~~--------------------------------7~~-------0~~-------0~~-----------|
|--3~~--------------------------------5~~-------2~~-------3~~-------------|
|-------------------------------------------------------------------------|
          But we still fall down,     still     fall      down


|-------------------------------------------------------------------------|
|------------------0---------------0--------------------------------------|
|------------0-------0---0---0-------0---0---0-----0-----0----0------0----|
|--------------4-------4-------4-------4-------4-----4-----4-----4-----4--|
|----------7-----7---------5-----5---------3-----3-----3-----3-----3------|
|-------------------------------------------------------------------------|
 And we'll still           fall            down


|-------------------------------------------------------------------------|
|------------------0---------------0--------------------------------------|
|------------0-------0---0---0-------0---0~~------------------------------|
|--------------4-------4-------4-------4----------------------------------|
|----------7-----7---------5-----5----------------------------------------|
|-------------------------------------------------------------------------|
 and we    still           fall


|-------------------------------------------------------------------------|
|--3--3-3--3-3---777-7---5---7-7---8-8---101010-10------------------------|
|--4--4-4--4-4---777-7---7---7-7---7-7----7-7-7--7------------------------|
|-------------------------------------------------------------------------|
|-------------------------------------------------------------------------|
|-------------------------------------------------------------------------|



|-------------------------------------------------------------------------|
|--3--3-3--3-3---777-7---5---7-7---8-8---101010-10------------------------|
|--4--4-4--4-4---777-7---7---7-7---7-7----7-7-7--7------------------------|
|-------------------------------------------------------------------------|
|-------------------------------------------------------------------------|
|-------------------------------------------------------------------------|



|-------------------------------------------------------------------------|
|----3-----------3----3-----------3-----5---7-7---8-8---101010-10---------|
|------4----------------4---------------7---7-7---7-7----7-7-7--7---------|
|--5-----5-4h5-5----5-----5-4h5-5-----------------------------------------|
|-------------------------------------------------------------------------|
|-------------------------------------------------------------------------|



|-------------------------------------------------------------------------|
|----3-----------3----3-----------3-----5---7-7---8-8---101010-10---------|
|------4----------------4---------------7---7-7---7-7----7-7-7--7---------|
|--5-----5-4h5-5----5-----5-4h5-5-----------------------------------------|
|-------------------------------------------------------------------------|
|-------------------------------------------------------------------------|



|-------------------------------------------------------------------------|
|-----12-------12--------12-------12-------15-----------------------------|
|--------12-------12--------12-------12-------12--------------------------|
|--12-------12--------12-------12-------12--------------------------------|
|-------------------------------------------------------------------------|
|-------------------------------------------------------------------------|



|-------------------------------------------------------------------------|
|-----12-------12--------12-------13-------15-----------------------------|
|--------12-------12--------12-------12-------12--------------------------|
|--12-------12--------12-------12-------12--------------------------------|
|-------------------------------------------------------------------------|
|-------------------------------------------------------------------------|



|-------------------------------------------------------------------------|
|-----12-------12--------12-------12-------13-----------------------------|
|--------12-------12--------12-------12-------12--------------------------|
|--12-------12--------12-------12-------12--------------------------------|
|-------------------------------------------------------------------------|
|-------------------------------------------------------------------------|



|-------------------------------------------------------------------------|
|-----12-------12--------12-------12-------12-----------------------------|
|--------12-------12--------14-------14-------14--------------------------|
|--12-------12--------12-------12-------12--------------------------------|
|-------------------------------------------------------------------------|
|-------------------------------------------------------------------------|



|-------------------------------------------------------------------------|
|-----12-------12--------12-------12-------15-----------------------------|
|--------12-------12--------12-------12-------12--------------------------|
|--12-------12--------12-------12-------12--------------------------------|
|-------------------------------------------------------------------------|
|-------------------------------------------------------------------------|



|-------------------------------------------------------------------------|
|-----12-------12--------12-------13-------15-----------------------------|
|--------12-------12--------12-------12-------12--------------------------|
|--12-------12--------12-------12-------12--------------------------------|
|-------------------------------------------------------------------------|
|-------------------------------------------------------------------------|



|-------------------------------------------------------------------------|
|-----12-------12--------12-------13-------15-----------------------------|
|--------12-------12--------12-------12-------12--------------------------|
|--12-------12--------12-------12-------12--------------------------------|
|-------------------------------------------------------------------------|
|-------------------------------------------------------------------------|



|-------------------------------------------------------------------------|
|-----12-------12----------------------13131313131313131313131313131313---|
|--------12-------12-------------------12121212121212121212121212121212---|
|--12-------12--------12---0---0---0----8-8-8-8-8-8-8-8-8-8-8-8-8-8-8-8---|
|--------------------------0---0---0----8-8-8-8-8-8-8-8-8-8-8-8-8-8-8-8---|
|--------------------------0---0---0----8-8-8-8-8-8-8-8-8-8-8-8-8-8-8-8---|



|-------------------------------------------------------------------------|
|-------------------------------------------------------------------------|
|--4-4-4-4-4-4-4-4-4-4-4-4---99-9--77-7-----------------------------------|
|-------------------------------------------------------------------------|
|--2-2-2-2-2-2-2-2-2-2-2-2---77-7--55-5-----------------------------------|
|-------------------------------------------------------------------------|



|-------------------------------------------------------------------------|
|-------------------------------------------------------------------------|
|--4-4-4-4-4-4-4-4-4-4-4-4---55-5--77-7-----------------------------------|
|-------------------------------------------------------------------------|
|--2-2-2-2-2-2-2-2-2-2-2-2---33-3--55-5-----------------------------------|
|-------------------------------------------------------------------------|



|-------------------------------------------------------------------------|
|-------------------------------------------------------------------------|
|--4-4-4-4-4-4-4-4-4-4-4-4---1111-11-11-11--------------------------------|
|-------------------------------------------------------------------------|
|--2-2-2-2-2-2-2-2-2-2-2-2----9-9--9--9--9--------------------------------|
|-------------------------------------------------------------------------|



|-------------------------------------------------------------------------|
|-------------------------------------------------------------------------|
|--4-4-4-4-4-4-4-4-4-4-4-4---/5/6/7/8/9/10/11/12/13/14/15/-16-------------|
|-------------------------------------------------------------------------|
|--2-2-2-2-2-2-2-2-2-2-2-2---/3/4/5/6/7/-9/-9/10/11/12/13/-14-------------|
|-------------------------------------------------------------------------|



|-------------------------------------------------------------------------|
|-------------------------------------------------------------------------|
|--16-16-16-16-16-16-16-16-16-16-16-16---2121-21--1919-19-----------------|
|-------------------------------------------------------------------------|
|--14-14-14-14-14-14-14-14-14-14-14-14---1919-19--1717-17-----------------|
|-------------------------------------------------------------------------|



|-------------------------------------------------------------------------|
|-------------------------------------------------------------------------|
|--1616-16-16-16-16-16-16-16-16-16-16-16---1717-17--1919-19---------------|
|-------------------------------------------------------------------------|
|--1414-14-14-14-14-14-14-14-14-14-14-14---1515-15--1717-17---------------|
|-------------------------------------------------------------------------|



|-------------------------------------------------------------------------|
|-------------------------------------------------------------------------|
|--1111-11-11-11-11-11-11-11-11-11-11-11-11-11-11-11----------------------|
|-------------------------------------------------------------------------|
|---9-9--9--9--9--9--9--9--9--9--9--9--9--9--9--9--9----------------------|
|-------------------------------------------------------------------------|



|-------------------------------------------------------------------------|
|-------------------------------------------------------------------------|
|--11-11-11-11-11-11-11-11--9-9-9-9--11-11-11-11--------------------------|
|-------------------------------------------------------------------------|
|---9--9--9--9--9--9--9--9--7-7-7-7---9--9--9--9--------------------------|
|-------------------------------------------------------------------------|



|-------------------------------------------------------------------------|
|--1313131313131313131313131313131313131313131313131313131313131313-------|
|--1212121212121212121212121212121212121212121212121212121212121212-------|
|---8-8-8-8-8-8-8-8-8-8-8-8-8-8-8-8-8-8-8-8-8-8-8-8-8-8-8-8-8-8-8-8-------|
|---8-8-8-8-8-8-8-8-8-8-8-8-8-8-8-8-8-8-8-8-8-8-8-8-8-8-8-8-8-8-8-8-------|
|---8-8-8-8-8-8-8-8-8-8-8-8-8-8-8-8-8-8-8-8-8-8-8-8-8-8-8-8-8-8-8-8-------|



|-------------------------------------------------------------------------|
|--18181818181818181818181818181818---20\\-20\\-20\\-20\\--2020\\\--------|
|--17171717171717171717171717171717---19\\-19\\-19\\-19\\--1919\\\--------|
|--15151515151515151515151515151515---17\\-17\\-17\\-17\\--1717\\\--------|
|--15151515151515151515151515151515---17\\-17\\-17\\-17\\--1717\\\--------|
|--15151515151515151515151515151515---17\\-17\\-17\\-17\\--1717\\\--------|



|------------------------------------3-3-3-3-3-3-3-3--3-3-3-3-3-3-3-3-----|
|--5-5-5-5-5-5-5-5--3-3-3-3-3-3-3-3--3-3-3-3-3-3-3-3--3-3-3-3-3-3-3-3-----|
|--4-4-4-4-4-4-4-4--2-2-2-2-2-2-2-2--0-0-0-0-0-0-0-0--0-0-0-0-0-0-0-0-----|
|--2-2-2-2-2-2-2-2--0-0-0-0-0-0-0-0--2-2-2-2-2-2-2-2--2-2-2-2-2-2-2-2-----|
|--2-2-2-2-2-2-2-2--0-0-0-0-0-0-0-0--3-3-3-3-3-3-3-3--3-3-3-3-3-3-3-3-----|
|--2-2-2-2-2-2-2-2--0-0-0-0-0-0-0-0---------------------------------------|
 But we still       fall             down


|------------------------------------3-3-3-3-3-3-3-3--3-3-3-3-3-3-3-3-----|
|--5-5-5-5-5-5-5-5--3-3-3-3-3-3-3-3--3-3-3-3-3-3-3-3--3-3-3-3-3-3-3-3-----|
|--4-4-4-4-4-4-4-4--2-2-2-2-2-2-2-2--0-0-0-0-0-0-0-0--0-0-0-0-0-0-0-0-----|
|--2-2-2-2-2-2-2-2--0-0-0-0-0-0-0-0--2-2-2-2-2-2-2-2--2-2-2-2-2-2-2-2-----|
|--2-2-2-2-2-2-2-2--0-0-0-0-0-0-0-0--3-3-3-3-3-3-3-3--3-3-3-3-3-3-3-3-----|
|--2-2-2-2-2-2-2-2--0-0-0-0-0-0-0-0---------------------------------------|
 And we still       fall             down


|------------------------------------3--3-3-3-3-3-3-3---------------------|
|--5-5-5-5-5-5-5-5--3-3-3-3-3-3-3-3--3--3-3-3-3-3-3-3--555--333-----------|
|--4-4-4-4-4-4-4-4--2-2-2-2-2-2-2-2--0--0-0-0-0-0-0-0--444--222-----------|
|--2-2-2-2-2-2-2-2--0-0-0-0-0-0-0-0--0--2-2-2-2-2-2-2--222--000-999-7-5-4-|
|--2-2-2-2-2-2-2-2--0-0-0-0-0-0-0-0--2--3-3-3-3-3-3-3--222--000-999-7-5-4-|
|--2-2-2-2-2-2-2-2--0-0-0-0-0-0-0-0--------------------222--000-999-7-5-4-|
 And you still      fall                down


|------------------------------------3--3-3-3-3-3-3-3---------------------|
|--5-5-5-5-5-5-5-5--3-3-3-3-3-3-3-3--3--3-3-3-3-3-3-3--555--333-----------|
|--4-4-4-4-4-4-4-4--2-2-2-2-2-2-2-2--0--0-0-0-0-0-0-0--444--222-----------|
|--2-2-2-2-2-2-2-2--0-0-0-0-0-0-0-0--0--2-2-2-2-2-2-2--222--000-999-7-5-4-|
|--2-2-2-2-2-2-2-2--0-0-0-0-0-0-0-0--2--3-3-3-3-3-3-3--222--000-999-7-5-4-|
|--2-2-2-2-2-2-2-2--0-0-0-0-0-0-0-0--------------------222--000-999-7-5-4-|
 yeah we still      fall                down


|-------------------------------------------------------------------------|
|-------------------------------------------------------------------------|
|-----------------------------------------7-7-7---4-4-4-------------------|
|--0-h2-2-2-2-2--0-h2-2-2--0-h2-2-2-2-2-----------------------------------|
|--0-h2-2-2-2-2--0-h2-2-2--0-h2-2-2-2-2---5-5-5---2-2-2-------------------|
|--0-h2-2-2-2-2--0-h2-2-2--0-h2-2-2-2-2-----------------------------------|



|-------------------------------------------------------------------------|
|-------------------------------------------------------------------------|
|-----------------------------------------7-7-7---4-4-4-------------------|
|--0-h2-2-2-2-2--0-h2-2-2--0-h2-2-2-2-2-----------------------------------|
|--0-h2-2-2-2-2--0-h2-2-2--0-h2-2-2-2-2---5-5-5---2-2-2-------------------|
|--0-h2-2-2-2-2--0-h2-2-2--0-h2-2-2-2-2-----------------------------------|



|-------------------------------------------------------------------------|
|-------------------------------------------------------------------------|
|-----------------------------------------7-7-7---4-4-4-------------------|
|--0-h2-2-2-2-2--0-h2-2-2--0-h2-2-2-2-2-----------------------------------|
|--0-h2-2-2-2-2--0-h2-2-2--0-h2-2-2-2-2---5-5-5---2-2-2-------------------|
|--0-h2-2-2-2-2--0-h2-2-2--0-h2-2-2-2-2-----------------------------------|



|-------------------------------------------------------------------------|
|-------------------------------------------------------------------------|
|-----------------------------------------7-7-7---4-4-4-------------------|
|--0-h2-2-2-2-2--0-h2-2-2--0-h2-2-2-2-2-----------------------------------|
|--0-h2-2-2-2-2--0-h2-2-2--0-h2-2-2-2-2---5-5-5---2-2-2-------------------|
|--0-h2-2-2-2-2--0-h2-2-2--0-h2-2-2-2-2-----------------------------------|



|-------------------------------------------------------------------------|
|-------------------------------------------------------------------------|
|-----------------------------------------7-7-7---4-4-4-------------------|
|--0-h2-2-2-2-2--0-h2-2-2--0-h2-2-2-2-2-----------------------------------|
|--0-h2-2-2-2-2--0-h2-2-2--0-h2-2-2-2-2---5-5-5---2-2-2-------------------|
|--0-h2-2-2-2-2--0-h2-2-2--0-h2-2-2-2-2-----------------------------------|
                 (I love you)             TAKE IT AWAY


|-------------------------------------------------------------------------|
|-------------------------------------------------------------------------|
|-----------------------------------------7-7-7---4-4-4-------------------|
|--0-h2-2-2-2-2--0-h2-2-2--0-h2-2-2-2-2-----------------------------------|
|--0-h2-2-2-2-2--0-h2-2-2--0-h2-2-2-2-2---5-5-5---2-2-2-------------------|
|--0-h2-2-2-2-2--0-h2-2-2--0-h2-2-2-2-2-----------------------------------|
                 (I love you)             TAKE IT AWAY


|-------------------------------------------------------------------------|
|-------------------------------------------------------------------------|
|-----------------------------------------7-7-7---4-4-4-------------------|
|--0-h2-2-2-2-2--0-h2-2-2--0-h2-2-2-2-2-----------------------------------|
|--0-h2-2-2-2-2--0-h2-2-2--0-h2-2-2-2-2---5-5-5---2-2-2-------------------|
|--0-h2-2-2-2-2--0-h2-2-2--0-h2-2-2-2-2-----------------------------------|
                 (I love you)             TAKE IT AWAY


|-------------------------------------------------------------------------|
|-------------------------------------------------------------------------|
|-----------------------------------------7-7-7---4-4-4-------------------|
|--0-h2-2-2-2-2--0-h2-2-2--0-h2-2-2-2-2-----------------------------------|
|--0-h2-2-2-2-2--0-h2-2-2--0-h2-2-2-2-2---5-5-5---2-2-2-------------------|
|--0-h2-2-2-2-2--0-h2-2-2--0-h2-2-2-2-2-----------------------------------|
                 (I love you)             TAKE      IT!

Tap to rate this tab
# A B C D E F G H I J K L M N O P Q R S T U V W X Y Z