Song name
# A B C D E F G H I J K L M N O P Q R S T U V W X Y Z

Biffy Clyro - Stingin Belle tab

MASSIVE new song by the scottish rock GIANTS! obviously this was only released yesterday 
and I doubt anyone has had a chance to tab it yet!
 this is by no means a definitive tab, just a little something for everyone to be going 
on with and a basis for people to work the whole thing out!
be considerate as yes, just like apparently every other tab on here it is my first tab! 
But feel free to add and feedback!

Drop C

Intro: (obviously Im going to leave the strumming patterns to you lot!)

D|----------|
A|----------|
F|----------|
C|--3----0--|
G|--3----0--|
C|--3----0--|

Main Riff:

D|---------------------------|
A|---------------------------|
F|---------------------------|
C|--0--0--4----0h2h4---------|
G|--0--0--------------0h4h5--|
C|--0--0---------------------|

Chorus:

D|--------------------------|
A|--------------------------|
F|--------------------------|
C|--5--0--5--0--5--9--7--0--|
G|--5--0--5--0--5--9--7--0--|
C|--5--0--5--0--5--9--7--0--|


Thanks for looking guys! 'MON THE BIFF!
Tap to rate this tab
 
# A B C D E F G H I J K L M N O P Q R S T U V W X Y Z