Song name
# A B C D E F G H I J K L M N O P Q R S T U V W X Y Z

Biffy Clyro - Stingin Belle tab

Stingin' Belle by Biffy Clyro

TUNING: Drop C but tuning the low E and A strings only should do for the riff
E string tuned to C
A string tuned to G

Taken from this video so take a look for phrasing and stuff: 
http://www.youtube.com/watch?v=opXbRlBUp9U

d|-----------------------------------------------|
A|-----------------------------------------------|
F|-----------------------------------------------|
C|-----------------------------------------------|
G|-3-3-3-3-3-3--0--0-----------------------------|
C|-3-3-3-3-3-3--0--0--(palm mute open strings)---|


d|-----------------------------------------------|
A|-----------------------------------------------|
F|-----------------------------------------------|
C|-----------------------------------------------|
G|-3-3-3-3-3-3-3-3-3-3-3-3--0-0-0-0-0------------|
C|-3-3-3-3-3-3-3-3-3-3-3-3--0-0-0-0-0------------|

d|-----------------------------------------------|
A|-----------------------------------------------|
F|-----------------------------------------------|
C|-----------------------------------------------|
G|-3-3-3-3-3-3------------0-0-0-0-0-0-0----------|
C|-3-3-3-3-3-3-(x3-times)-0-0-0-0-0-0-0----------|

d|-----------------------------------------------|
A|-----------------------------------------------|
F|-----------------------------------------------|
C|-----------------------------------------------|
G|-3-3-3-3-3-3------------0-0-0-0-0-0-0-0-0------|
C|-3-3-3-3-3-3-(x4-times)-0-0-0-0-0-0-0-0-0------|

d|-----------------------------------------------|
A|-----------------------------------------------|
F|-----------------------------------------------|
C|-----------------------------------------------|
G|-3-3-3-3-3-3-----------------------------------|
C|-3-3-3-3-3-3-(X8-times-)-----------------------|

d|-----------------------------------------------|
A|-----------------------------------------------|
F|-----------------------------------------------|
C|-----------------------------------------------|
G|-----9-----7h9----0h3h5------------------------|
C|-0-0------0-----0--------(Repeat til verse)----|
Tap to rate this tab
# A B C D E F G H I J K L M N O P Q R S T U V W X Y Z