Song name
# A B C D E F G H I J K L M N O P Q R S T U V W X Y Z

Biffy Clyro - Toys Toys Toys tab

thanks.

Tuned to Drop d.

i think most of it is right.

im not sure about the very second chord at the start sorry.


INTRO
e|-----------------------------------------------------------------------------|
B|-----------------------------------------------------------------------------|
G|----------------99999999-----------------------------------------------------|
D|----77777777----99999999----33333333----xx---55----55---3--------------------|
A|----77777777----77777777----33333333----xx---33----55---3--------x3----------|
D|----77777777----77777777----33333333----xx---xx----55---3----(let ring)------|

e|---------------------------------------------------------------------------|
B|---------------------------------------------------------------------------|
G|----------------9-----9---------------10----10-------------------12--------|
D|------------77----77---------------88----88-----------------1010----1010---|
A|---------------------------------------------------------------------------|
D|--888777----------------101010555----------------121212333-----------------|

e|---------------------------------------------------------------------------|
B|--12----10----10------9-----9----9------9p7--------------------------------|
G|-----88----88------77----77----77----77------------------------------------|
D|---------------------------------------------------------------------------|
A|---------------------------------------------------------------------------|
D|---------------------------------------------------------------------------|

INTRO AGAIN
e|-----------------------------------------------------------------------------|
B|-----------------------------------------------------------------------------|
G|----------------99999999-----------------------------------------------------|
D|----77777777----99999999----33333333----xx---55----55---3--------------------|
A|----77777777----77777777----33333333----xx---33----55---3--------x3----------|
D|----77777777----77777777----33333333----xx---xx----55---3----(let ring)------|

e|---------------------------------------------------------------------------|
B|---------------------------------------------------------------------------|
G|----------------9-----9---------------10----10-------------------12--------|
D|------------77----77---------------88----88-----------------1010----1010---|
A|---------------------------------------------------------------------------|
D|--888777----------------101010555----------------121212333-----------------|

e|---------------------------------------------------------------------------|
B|--12----10----10------9-----9----9------9p7--------------------------------|
G|-----88----88------77----77----77----77------------------------------------|
D|---------------------------------------------------------------------------|
A|---------------------------------------------------------------------------|
D|---------------------------------------------------------------------------|

Distortion comes on here
e|----------------------------------|----------------------------------------|
B|----------------------------------|------Chorus from here------------------|
G|--------------10------------------|-------------------------999999999999---|
D|--1-1-0-1-1---0------repeat twice-|---1-0-1--777777777777---999999999999---|
A|--1-1-0-1-1-----------------------|---1-0-1--777777777777---777777777777---|
D|--1-1-0-1-1-----------------------|---1-0-1--777777777777---777777777777---|

e|---------------------------------------------------------------------------|
B|---------------------------------------------------------------------------|
G|-------------------------------------9b9b9b9b9b9b9b9b9b9b9b----10-9--10-9--|
D|-0--------------xx---333--x-55-000-----------------------------------------|
A|-0-(ring)-------xx---333--x-55-000-----------------------------------------|
D|-0--------------xx---333--x-55-000----------------------------0-----0------|

e|---------------------------------------------------------------------------|
B|---------------------------------------------------------------------------|
G|--10-9---10-9--------------------------------------------------------------|
D|-----------------0------------xx-333--x--55-000----------------------------|
A|-----------------0----(ring)--xx-333--x--55-000----------------------------|
D|-0-----0---------0------------xx-333--x--55-000----------------------------|


e|---------------------------------------------------------------------------|
B|---------------------------------------------------------------------------|
G|---------------------------------------------------------------------------|
D|---000000----333333----101010101010----777-555-0---------------------------|
A|---000000----333333----101010101010----777-555-0-------x2------------------|
D|---000000----333333----101010101010----777-555-0---------------------------|

no distortion
e|---------------------------------------------------------------------------|
B|-15-(x16)--17-(x16)-13-(x16)-----11--<-x16, pick each note individually----|
G|-14--------14-------14--------14-------------------------------------------|
D|---------------------------------------------------------------------------|
A|---------------------------------------------------------------------------|
D|---------------------------------------------------------------------------|


e|---------------------------------------------------------------------------|
B|-15-(x16)--17-(x16)-13-(x16)-----11--<-x16, pick each note individually----|
G|-14--------14-------14--------14-------------------------------------------|
D|---------------------------------------------------------------------------|
A|---------------------------------------------------------------------------|
D|---------------------------------------------------------------------------|

e|--------------------------13----------12----13----12----13----12-----------|
B|-15-(x16)--17-(x16)----11-----(x5)--11----11----11----11----11-------------|
G|-14--------14-------14------------14----14----14----14----14---------------|
D|---------------------------------------------------------------------------|
A|---------------------------------------------------------------------------|
D|---------------------------------------------------------------------------|


Heavy distortion.
e|---------------------------------------------------------------------------|
B|-15-(x16)--17-(x16)-13-(x16)-----11--<-x16, pick each note individually----|
G|-14--------14-------14--------14-------------------------------------------|
D|-0---------0--------0------------------------------------------------------|
A|---------------------------------------------------------------------------|
D|---------------------------------------------------------------------------|


e|--------------------------13----------12----13----12----13----12-----------|
B|-15-(x16)--17-(x16)----11-----(x5)--11----11----11----11----11-------------|
G|-14--------14-------14------------14----14----14----14----14---------------|
D|-0---------0---------------------------------------------------------------|
A|---------------------------------------------------------------------------|
D|---------------------------------------------------------------------------|


Chorus
e|---------------------------------------------------------------------------|
B|---------------------------------------------------------------------------|
G|--------------------------------------------999999999999-------------------|
D|--------------------1-0-1--777777777777-----999999999999-------------------|
A|--------------------1-0-1--777777777777-----777777777777-------------------|
D|--------------------1-0-1--777777777777-----777777777777-------------------|

e|---------------------------------------------------------------------------|
B|---------------------------------------------------------------------------|
G|-------------------------------------9b9b9b9b9b9b9b9b9b9b9b----10-9--10-9--|
D|-0--------------xx---333--x-55-000-----------------------------------------|
A|-0-(ring)-------xx---333--x-55-000-----------------------------------------|
D|-0--------------xx---333--x-55-000----------------------------0-----0------|

e|---------------------------------------------------------------------------|
B|---------------------------------------------------------------------------|
G|--10-9---10-9--------------------------------------------------------------|
D|-----------------0------------xx-333--x--55-000----------------------------|
A|-----------------0----(ring)--xx-333--x--55-000----------------------------|
D|-0-----0---------0------------xx-333--x--55-000----------------------------|


e|---------------------------------------------------------------------------|
B|---------------------------------------------------------------------------|
G|---------------------------------------------------------------------------|
D|---000000----333333----101010101010----777-555-0---------------------------|
A|---000000----333333----101010101010----777-555-0------x2-------------------|
D|---000000----333333----101010101010----777-555-0---------------------------|

Wierd bit after chorus

e|---------------------------------------------------------------------------|
B|---------------------------------------------------------------------------|
G|---------------------------------------------------------------------------|
D|---0-0-0-0-0-0----3235------------0-0-0-0----------------------------------|
A|---0-0-0-0-0-0----3235-----x2-----0-0-0-0----------------------------------|
D|---0-0-0-0-0-0----3235------------0-0-0-0----------------------------------|


No distortion
e|---------------------------------------------------------------------------|
B|-15-(x16)--17-(x16)-13-(x16)-----11--<-x16, pick each note individually----|
G|-14--------14-------14--------14-------------------------------------------|
D|---------------------------------------------------------------------------|
A|---------------------------------------------------------------------------|
D|---------------------------------------------------------------------------|

e|--------------------------13----------12----13----12----13----12-----------|
B|-15-(x16)--17-(x16)----11-----(x5)--11----11----11----11----11-------------|
G|-14--------14-------14------------14----14----14----14----14---------------|
D|---------------------------------------------------------------------------|
A|---------------------------------------------------------------------------|
D|---------------------------------------------------------------------------|


Heavy distortion.
e|---------------------------------------------------------------------------|
B|-15-(x16)--17-(x16)-13-(x16)-----11--<-x16, pick each note individually----|
G|-14--------14-------14--------14-------------------------------------------|
D|-0---------0--------0------------------------------------------------------|
A|---------------------------------------------------------------------------|
D|---------------------------------------------------------------------------|


e|--------------------------13----------12----13----12----13----12-----------|
B|-15-(x16)--17-(x16)----11-----(x5)--11----11----11----11----11-------------|
G|-14--------14-------14------------14----14----14----14----14---------------|
D|-0---------0---------------------------------------------------------------|
A|---------------------------------------------------------------------------|
D|---------------------------------------------------------------------------|


Outro X2
e|---------------------------------------------------------------------------|
B|---------------------------------------------------------------------------|
G|---------------------------------------------------------------------------|
D|---0-5-3-0-5-3-0---0-5-0-5-7-7----7-5-0-7-5-0-10---7-7-x-7-7-x-7-7-x-7-7---|
A|---0-5-3-0-5-3-0---0-5-0-5-7-7----7-5-0-7-5-0-10---7-7-x-7-7-x-7-7-x-7-7---|
D|---0-5-3-0-5-3-0---0-5-0-5-7-7----7-5-0-7-5-0-10---7-7-x-7-7-x-7-7-x-7-7---|


| /  slide up
| \  slide down
| h  hammer-on
| p  pull-off
| ~  vibrato
| +  harmonic
| x  Mute note
===============================================================================
Tap to rate this tab
# A B C D E F G H I J K L M N O P Q R S T U V W X Y Z