Song name
# A B C D E F G H I J K L M N O P Q R S T U V W X Y Z

Biffy Clyro - Stingin Belle tab

Biffy Clyro - Stingin' Belle

Tuning: Drop C - C,G,C,F,A,D

Intro:
D|---------------------------------------------------------------|
A|---------------------------------------------------------------|
F|-5-5-5-5-5-5------5-5-5-5-5-5-5-5-5-5-5-5----------------------|
C|-3-3-3-3-3-3-0-0--3-3-3-3-3-3-3-3-3-3-3-3-0-0-0-0--------------|
G|-3-3-3-3-3-3-0-0--3-3-3-3-3-3-3-3-3-3-3-3-0-0-0-0--------------|
C|-3-3-3-3-3-3-0-0--3-3-3-3-3-3-3-3-3-3-3-3-0-0-0-0--------------|

D|---------------------------------------------------------------|
A|---------------------------------------------------------------|
F|-5-5-5-5-5-5-5-5-5-5-5-5-5-5-5-5-5-5---------------------------|
C|-3-3-3-3-3-3-3-3-3-3-3-3-3-3-3-3-3-3-0-0-0-0-0-0---------------|
G|-3-3-3-3-3-3-3-3-3-3-3-3-3-3-3-3-3-3-0-0-0-0-0-0---------------|
C|-3-3-3-3-3-3-3-3-3-3-3-3-3-3-3-3-3-3-0-0-0-0-0-0---------------|

D|-----------------------------------------------------------------|
A|-----------------------------------------------------------------|
F|-5-5-5-5-5-5-5-5-5-5-5-5-5-5-5-5-5-5-5-5-5-5-5-5-----------------|
C|-3-3-3-3-3-3-3-3-3-3-3-3-3-3-3-3-3-3-3-3-3-3-3-3-0-0-0-0-0-0-0-0-|
G|-3-3-3-3-3-3-3-3-3-3-3-3-3-3-3-3-3-3-3-3-3-3-3-3-0-0-0-0-0-0-0-0-|
C|-3-3-3-3-3-3-3-3-3-3-3-3-3-3-3-3-3-3-3-3-3-3-3-3-0-0-0-0-0-0-0-0-|

D|---------------------------------------------------------------|
A|---------------------------------------------------------------|
F|-5-5-5-5-5-5-5-5-5-5-5-5-5-5-5-5-5-5-5-5-5-5-5-5-5-5-5-5-5-5---|
C|-3-3-3-3-3-3-3-3-3-3-3-3-3-3-3-3-3-3-3-3-3-3-3-3-3-3-3-3-3-3---|
G|-3-3-3-3-3-3-3-3-3-3-3-3-3-3-3-3-3-3-3-3-3-3-3-3-3-3-3-3-3-3---|
C|-3-3-3-3-3-3-3-3-3-3-3-3-3-3-3-3-3-3-3-3-3-3-3-3-3-3-3-3-3-3---|

D|---------------------------------------------------------------|
A|---------------------------------------------------------------|
F|-5-5-5-5-5-5-5-5-5-5-5-5-5-5-5-5-5-5---------------------------|
C|-3-3-3-3-3-3-3-3-3-3-3-3-3-3-3-3-3-3---------------------------|
G|-3-3-3-3-3-3-3-3-3-3-3-3-3-3-3-3-3-3---------------------------|
C|-3-3-3-3-3-3-3-3-3-3-3-3-3-3-3-3-3-3---------------------------|

Main Riff:
D|---------------------------------------------------------------|
A|---------------------------------------------------------------|
F|---------------------------------------------------------------| (x2)
C|-----2/4--0-0h2h4-------------2/4--0-0h2h4---------------------|
G|------------------0h2h5--------------------0h2h5---------------|
C|-0-0----------------------0-0----------------------------------|

Verse:
D|---------------------------------------------------------------|
A|-----3------3-----------------3------3-------------------------|
F|----------------------0------------------------0---------------|
C|---0------0----0h2h4--------0------0----0h2h4------------------|
G|---------------------------------------------------------------|
C|-0------0-----------------2------2-----------------------------|

D|---------------------------------------------------------------|
A|-----3-------3------------------3------3-----------------------|
F|------------------------0--------------------------------------|
C|---5-------5-----0h2h4--------0------0------0h2h4--------------|
G|---------0-----------------------------------------0h2h5-------|
C|-5--------------------------0------0---------------------------|

Pre-Chorus:
D|---------------------------------------------------------------|
A|---------------------------------------------------------------|
F|---------------------------------------------------------------|
C|-----2/4--0-0h2h4-------------2/4--0-0h2h4---------------------|
G|------------------0h2h5--------------------0h2h5---------------|
C|-0-0----------------------0-0----------------------------------|

D|---------------------------------------------------------------|
A|---------------------------------------------------------------|
F|---------------------------------------------------------------| 
C|-----2/4--0-0h2h4-------------2/4--0-0h2h4---------------------|
G|------------------0h2h5--------------------0h2h5---------------|
C|-2-2----------------------2-2----------------------------------|

D|---------------------------------------------------------------|
A|---------------------------------------------------------------|
F|---------------------------------------------------------------|
C|-----2/4--0-0h2h4--------------2/4--0-0h2h4--------------------|
G|------------------0h2h5---0-0----------------0h2h5-------------|
C|-5-5-----------------------------------------------------------|

D|---------------------------------------------------------------|
A|---------------------------------------------------------------|
F|---------------------------------------------------------------|
C|-----2/4--0-0h2h4-------------2/4--0-0h2h4---------------------|
G|------------------0h2h5--------------------0h2h5---------------|
C|-0-0----------------------0-0----------------------------------|

Chorus:
D|---------------------------------------------------------------|
A|------8-------3--------8-------3--------8--7-7-7-------10------|
F|------7-------2--------7-------2--------7--7-7-7-------9-------|
C|-5-5--5--0-0--0---5-5--5--0-0--0---5-5--5--7-7-7--7-7--7-------|
G|-5-5--5--0-0--0---5-5--5--0-0--0---5-5--5--5-5-5--7-7--7-------|
C|-5-5--5--0-0--0---5-5--5--0-0--0---5-5--5---------7-7--7-------|

D|---------------------------------------------------------------|
A|---------------------------------------------------------------|
F|-2-2-2-2-2-2-2-2-2-2-2-2---------------------------------------| 
C|-0-0-0-0-0-0-0-0-0-0-0-0---------------------------------------|
G|-0-0-0-0-0-0-0-0-0-0-0-0---------------------------------------|
C|-0-0-0-0-0-0-0-0-0-0-0-0---------------------------------------|

Verse 2:
(Played at the end of each line in this verse)
D|---------------------------------------------------------------|
A|---------------------------------------------------------------|
F|---------------------------------------------------------------| 
C|--0h2h4--------------------------------------------------------| (x4)
G|---------0h2h5-------------------------------------------------|
C|---------------------------------------------------------------|

Chorus 2:
D|------------------------------------------------------------------|
A|------8-------3--------8-------3--------8--7-7-7-------10-------3-|
F|------7-------2--------7-------2--------7--7-7-7-------9--------2-|
C|-5-5--5--0-0--0---5-5--5--0-0--0---5-5--5--7-7-7--7-7--7---0-0--0-|
G|-5-5--5--0-0--0---5-5--5--0-0--0---5-5--5--5-5-5--7-7--7---0-0--0-|
C|-5-5--5--0-0--0---5-5--5--0-0--0---5-5--5---------7-7--7---0-0--0-|

D|---------------------------------------------------------------|
A|------8-------3--------8-------3--------8--7-7-7-------10------|
F|------7-------2--------7-------2--------7--7-7-7-------9-------|
C|-5-5--5--0-0--0---5-5--5--0-0--0---5-5--5--7-7-7--7-7--7-------|
G|-5-5--5--0-0--0---5-5--5--0-0--0---5-5--5--5-5-5--7-7--7-------|
C|-5-5--5--0-0--0---5-5--5--0-0--0---5-5--5---------7-7--7-------|

D|---------------------------------------------------------------|
A|---------------------------------------------------------------|
F|-1-1-1-1--111111-----------------------------------------------|
C|-0-0-0-0--000000-----------------------------------------------| (x4)
G|-0-0-0-0--000000-----------------------------------------------|
C|-0-0-0-0--000000-----------------------------------------------|

Middle Eight:
D|---------------------------------------------------------------|
A|---------------------------------------------------------------|
F|-2--------2--------12--------12--------------------------------|
C|-0--------0--------0---------0---------------------------------| (x2)
G|---------------------------------------------------------------|
C|---------------------------------------------------------------|

D|----------------------------------------------------------------------|
A|-3-3-3-2-0--3-3-3-2-0-------------------------------------------------|
F|-2-2-2-2-2--2-2-2-2-2--12-12-12-11-9--12-12-12-11-9-------------------|
C|-0-0-0-0-0--0-0-0-0-0--0--0--0--0--0--0--0--0--0--0-------------------|
G|----------------------------------------------------------------------|
C|----------------------------------------------------------------------|

D|---------------------------------------------------------------|
A|---------------------------------------------------------------|
F|-11-11-11-9-7--11-11-11-9-7--12-12-12-14-14-14-14-14-----------|
C|-0--0--0--0-0--0--0--0--0-0--0--0--0--0--0--0--0--0------------|
G|---------------------------------------------------------------|
C|---------------------------------------------------------------|

D|---------------------------------------------------------------|
A|-7-7-7-7-7-7-7-7-7-7-7-7--8-8-8-8-8-8-8-8-8-8-8-8--------------|
F|-6-6-6-6-6-6-6-6-6-6-6-6--7-7-7-7-7-7-7-7-7-7-7-7--------------|
C|-4-4-4-4-4-4-4-4-4-4-4-4--5-5-5-5-5-5-5-5-5-5-5-5--------------| (x2)
G|-4-4-4-4-4-4-4-4-4-4-4-4--5-5-5-5-5-5-5-5-5-5-5-5--------------|
C|-4-4-4-4-4-4-4-4-4-4-4-4--5-5-5-5-5-5-5-5-5-5-5-5--------------|

Outro:

D|---------------------------------------------------------------|
A|---------------------------------------------------------------|
F|---------------------------------------------------------------|
C|-----2/4--0-0h2h4-------------2/4--0-0h2h4---------------------|
G|------------------0h2h5--------------------0h2h5---------------| (x2)
C|-0-0----------------------0-0----------------------------------|

ENJOY!
I have a cover of this on YouTube! If you have any spare time then please watch!
Thank you!

http://www.youtube.com/watch?v=h4F-eiWVQl0
Tap to rate this tab
 
# A B C D E F G H I J K L M N O P Q R S T U V W X Y Z