Song name
# A B C D E F G H I J K L M N O P Q R S T U V W X Y Z

Biffy Clyro - Folding Stars Acoustic tab

-------------------------------------------------------------------------------
                             Folding Stars - Biffy Clyro
-------------------------------------------------------------------------------
There is an expansion on the previous version (which was excellent btw, thanks!) that I 
find works better for me at least :-)
It also allows you to stay in standard tuning but get that nice drone sound Simon gets.

Intro and Verse
                         (quick down beat)
                             |
e|-0---0---0----0---0------------------------------------------------------------|
B|-10--10--10--10--10--------10--------(add in when necessary)-------------------|
G|-9---9---9---9---11------9-------11--------------------------------------------|
D|-x---x---11--0---0-------------------------------------------------------------|
A|-11--12--0---0---0-------------------------------------------------------------|
E|-x---x---x----x---x------------------------------------------------------------|

Riff 2 : Bridge

e|-0---0---0---0-------------------------------------------------------------|
B|-3---5---0---0-------------------------------------------------------------|
G|-4---6---7---9-------------------------------------------------------------|
D|-4---6---7---9-------------------------------------------------------------|
A|-2---4---5---7-------------------------------------------------------------|
E|-x---x---x---x-------------------------------------------------------------|

 Chorus (I use my thumb for the bottom notes)

e|-0---0---0---0----0----0---0---0---------------------------------------------|
B|-10--0---0---10---10---0---10--0---------------------------------------------|
G|-9---9---9---11---9----7---9---9---------------------------------------------|
D|-11--9---11--11---0----9---11--9---------------------------------------------|
A|-0---7---11--9----12---9---0---7---------------------------------------------|
E|-x---0---9---x----10---7---x---0---------------------------------------------|

Enjoy
Tap to rate this tab
# A B C D E F G H I J K L M N O P Q R S T U V W X Y Z