Song name
# A B C D E F G H I J K L M N O P Q R S T U V W X Y Z

Biffy Clyro - Sounds Like Ballons tab

-----------------------------------------------------------------
SOUNDS LIKE BALLOONS - Biffy Clyro
-----------------------------------------------------------------
Tabbed by: Mitchell Rippon
Email: mitch.rippon2@gmail.com

Tuning: Drop C#


eb|------------------------------------------------|
Bb|------------------------------------------------|
Gb|---4----------------------4---------------------|  x2
Db|-----4--------5h7p5---------4-5h7p5-------------|
Ab|-2--------------------0-2------------0----------|
C#|------------------------------------------------|
                              -[Palm Muted]-

eb|-----------------------------------------------|
Bb|-----------------------------------------------|
Gb|---4----------------------4--------------------| x4
Db|-----4--------5h7p5---------4-5h7p5------------|
Ab|-2--------------------0-2------------0---------|
C#|-----------------------------------------------|

eb|----------------------------------------------|
Bb|----------------------------------------------|
Gb|---4----------------------4-------------------|
Db|-----4--------5h7p5---------4-5h7p5-----------|
Ab|----------------------------------------------|
C#|-5--------------------4-5------------5--------|

eb|----------------------------------------------|
Bb|----------------------------------------------|
Gb|---4----------------------4-------------------|
Db|-----4--------5h7p5---------4-5h7p5-----------|
Ab|-------------------------------------0--------|
C#|-2--------------------0-2---------------------|


eb|-----------------------------------------------|
Bb|-----------------------------------------------|
Gb|---4----------------------4--------------------| x2
Db|-----4--------5h7p5---------4-5h7p5------------|
Ab|-2--------------------0-2------------0---------|
C#|-----------------------------------------------|

eb|----------------------------------------------|
Bb|----------------------------------------------|
Gb|---4----------------------4-------------------|
Db|-----4--------5h7p5---------4-5h7p5-----------|
Ab|----------------------------------------------|
C#|-5--------------------4-5------------5--------|

eb|----------------------------------------------|
Bb|----------------------------------------------|
Gb|---4----------------------4-------------------|
Db|-----4--------5h7p5---------4-5h7p5-0---------|
Ab|----------------------------------------------|
C#|-2--------------------0-2---------------------|
Tap to rate this tab
# A B C D E F G H I J K L M N O P Q R S T U V W X Y Z