Song name
# A B C D E F G H I J K L M N O P Q R S T U V W X Y Z

Biffy Clyro - Sounds Like Balloons tab

(/) Slide Up  (\) Slide Down  (h) Hammer On  (p) Pull Off  (b) Bend (r) Release (v) Vibrato

Intro:

eb|--------------------------------------------|
Bb|--------------------------------------------|
Gb|-----4-----------4--------4-----------4-----|      play 2 times palm muted
Db|--------4--4--5--------------4--4--5--------|      then 2 times not
Ab|--2-----------------0--2-----------------0--|
C#|--------------------------------------------|


Verse:

eb|--------------------------------------------------------------------------|
Bb|--------------------------------------------------------------------------|
Gb|-----4-----------4--------4-----------4--------4-----------4--------4-----|
Db|--------4--4--5--------------4--4--5--------------4--4--5--------------4--|
Ab|--2-----------------0--2-----------------0--2-----------------0--2--------|
C#|--------------------------------------------------------------------------|

-----------------------------------------------------|
-----------------------------------------------------|
-----4--------4-----------4--------4-----------4-----|
-4--5--------------4--4--5--------------4--4--5------|
--------0--------------------------------------------|
-----------5-----------------4--5-----------------4--|


--------------------------------------------|
--------------------------------------------|
-----4-----------4--------4-----------4-----|   x2
--------4--4--5--------------4--4--5--------|
-----------------------------------------0--|
--2-----------------0--2--------------------|

Pre-chorus:

eb|---------------------------------------------------|
Bb|---------------------------------------------------|
Gb|--4--4--4------------------4--4--4-----------------|
Db|--4--4--4--piano interlude-4--4--4-----------------|piano interlude
Ab|--2--2--2------------------2--2--2-----------------|
C#|---------------------------------------------------|

Chorus:

eb|--------------------------------------------------------------------------|
Bb|--------------------------------------------------------------------------|
Gb|--------------------------------------------------------------------------|
Db|--0--0--0--0--0--0----2--2--2--2--4--4--4--4----5--5--5--5--5--5--5--5--5-|
Ab|--0--0--0--0--0--0----2--2--2--2--4--4--4--4----5--5--5--5--5--5--5--5--5-|
C#|--0--0--0--0--0--0----2--2--2--2--4--4--4--4----5--5--5--5--5--5--5--5--5-|

---------------------------------------------------------------------------|
---------------------------------------------------------------------------|
---------------------------------------------------------------------------|
--7--7--7--7--7--7--7--7--7--7--7--7----9--9--9--9--9--9--9--9--9--9--9--9-|
--7--7--7--7--7--7--7--7--7--7--7--7----9--9--9--9--9--9--9--9--9--9--9--9-|
--7--7--7--7--7--7--7--7--7--7--7--7----9--9--9--9--9--9--9--9--9--9--9--9-|


--------------------------------------------------------------------------|
--------------------------------------------------------------------------|
--------------------------------------------------------------------------|
--0--0--0--0--0--0----2--2--2--2--4--4--4--4----5--5--5--5--5--5--5--5--5-|
--0--0--0--0--0--0----2--2--2--2--4--4--4--4----5--5--5--5--5--5--5--5--5-|
--0--0--0--0--0--0----2--2--2--2--4--4--4--4----5--5--5--5--5--5--5--5--5-|

---------------------------------------------------------------------------|
---------------------------------------------------------------------------|
---------------------------------------------------------------------------|
--7--7--7--7--7--7--7--7--7--7--7--7---0--0--0--0--0--0--0--0--0--0--0--0--|
--7--7--7--7--7--7--7--7--7--7--7--7---0--0--0--0--0--0--0--0--0--0--0--0--|
--7--7--7--7--7--7--7--7--7--7--7--7---0--0--0--0--0--0--0--0--0--0--0--0--|


Verse x2

Different pre-chorus:

eb|------------------------------------|
Bb|------------------------------------|
Gb|--4--4--4--4------7--7--7--9--9--9--|
Db|--4--4--4--4------7--7--7--9--9--9--|
Ab|--2--2--2--2------5--5--5--7--7--7--|
C#|------------------------------------|

Chorus

Bridge x2:

eb|---------------------------------------------------------------------------|
Bb|---------------------------------------------------------------------------|
Gb|---------------------------------------------------------------------------|
Db|--2--2--2--2--2--2--2--2--2--2--2--2----9--9--9--9--9--9--9--9--9--9--9--9-|
Ab|--2--2--2--2--2--2--2--2--2--2--2--2----9--9--9--9--9--9--9--9--9--9--9--9-|
C#|--2--2--2--2--2--2--2--2--2--2--2--2----9--9--9--9--9--9--9--9--9--9--9--9-|

---------------------------------------------------------------------------|
---------------------------------------------------------------------------|
---------------------------------------------------------------------------|
--0--0--0--0--0--0--0--0--0--0--0--0----5--5--5--5--5--5--5--5--5--5--5--5-|
--0--0--0--0--0--0--0--0--0--0--0--0----5--5--5--5--5--5--5--5--5--5--5--5-|
--0--0--0--0--0--0--0--0--0--0--0--0----5--5--5--5--5--5--5--5--5--5--5--5-|

Solo-ish bit:

eb|---------------------------------------------------------------------------|
Bb|------17----------17----------17----------17----------15----------15-------|
Gb|--16------16--16------16--16------16--16------16--16------16--16------16---|
Db|---------------------------------------------------------------------------|
Ab|---------------------------------------------------------------------------|
C#|---------------------------------------------------------------------------|


------------------------------------------------------------------------------|
---15----------15------------15----------15----------15----------15-----------|
-16-----16--16-------11--11------11--11------11--11------11--11------12--12---|
------------------------------------------------------------------------------|
------------------------------------------------------------------------------|
------------------------------------------------------------------------------|

----------------------------------------|
-15----------15----------15----------15-|
----12--12------12--12------12--12------|
----------------------------------------|  x2
----------------------------------------|
----------------------------------------|

Chorus

Outro:

eb|---------------------|
Bb|---------------------|
Gb|-----4-----------4-4-|
Db|--------4--5--7----4-|
Ab|--2----------------2-|
C#|---------------------|
Tap to rate this tab
 
# A B C D E F G H I J K L M N O P Q R S T U V W X Y Z