Song name
# A B C D E F G H I J K L M N O P Q R S T U V W X Y Z

Biffy Clyro - Sounds Like Balloons tab

-----------------------------------------------------------------
SOUNDS LIKE BALLOONS - Biffy Clyro
-----------------------------------------------------------------
Tabbed by: Mitchell Rippon
Email: mitch.rippon2@gmail.com

Tuning: Drop C#


D#|----------------------------------------------|
A#|----------------------------------------------|
F#|---4--------------4-------4-------------------|  x2
C#|-----4--------5h7-----------4-5h7p5-----------|
G#|-2--------------------0-2------------0--------|
C#|----------------------------------------------|
                 -[Palm Muted]-

D#|----------------------------------------------|
A#|----------------------------------------------|
F#|---4--------------4-------4-------------------| x4
C#|-----4--------5h7-----------4-5h7p5-----------|
G#|-2--------------------0-2------------0--------|
C#|----------------------------------------------|

D#|----------------------------------------------|
A#|----------------------------------------------|
F#|---4--------------4-------4-------------------|
C#|-----4--------5h7-----------4-5h7p5-----------|
G#|----------------------------------------------|
C#|-5--------------------4-5------------5--------|

D#|----------------------------------------------|
A#|----------------------------------------------|
F#|---4--------------4-------4-------------------|
C#|-----4--------5h7-----------4-5h7p5-----------|
G#|-------------------------------------0--------|
C#|-2--------------------0-2---------------------|


D#|----------------------------------------------|
A#|----------------------------------------------|
F#|---4--------------4-------4-------------------| x2
C#|-----4--------5h7----------4-5h7p5------------|
G#|-2--------------------0-2------------0--------|
C#|----------------------------------------------|

D#|----------------------------------------------|
A#|----------------------------------------------|
F#|---4--------------4-------4-------------------|
C#|-----4--------5h7----------4-5h7p5------------|
G#|----------------------------------------------|
C#|-5--------------------4-5------------5--------|

D#|----------------------------------------------|
A#|----------------------------------------------|
F#|---4--------------4-------4-------------------|
C#|-----4--------5h7----------4-5h7p5-0----------|
G#|----------------------------------------------|
C#|-2--------------------0-2---------------------|
Tap to rate this tab
# A B C D E F G H I J K L M N O P Q R S T U V W X Y Z