Song name
# A B C D E F G H I J K L M N O P Q R S T U V W X Y Z

Biffy Clyro - Opposite tab

-------------------------------------------------------------------------------
                                                        OPPOSITE - Biffy Clyro
-------------------------------------------------------------------------------
Tabbed by: merkinball15


Tuning: DADGAD

Intro/Verse
D|---------------------------------------------------------------------------| x3
A|-------------3-------------------------3-----------------------------------|
G|------0h2--2---2----0h2--2-0----0h2--2---2--2--2-2p0---0-------------------|
D|----3-3----3-----3-------3-3----3----3---3--3--3-3---3---------------------|
A|----x------x-----x-------x-x---------x------1--1-1-------------------------|
D|----3------3-----3-------3-3--0------0-------------------------------------|


Pre-chorus
D|---------------------------------------------------------------------------| x2
A|----/12----10----5----8----------------------------------------------------| listen to
G|----/10----9-----3----7----------------------------------------------------| the song 
D|----/12----10----5----8----------------------------------------------------| for strum
A|-----x-----x-----x----x----------------------------------------------------| pattern
D|----/12----10----5----8----------------------------------------------------|

Interlude
D|---------------------------------------------------------------------------| x2
A|----3~--5~--8~-------------------------------------------------------------|
G|----2~--3~--7~-------------------------------------------------------------|
D|----3~--5~--8~-------------------------------------------------------------|
A|----x---x---x--------------------------------------------------------------|
D|----3~--5~--8~-------------------------------------------------------------|

Chorus
D|---------------------------------------------------------------------------| x2
A|----/10----5----8----3-----------------------------------------------------|
G|----/9-----3----7----2-----------------------------------------------------|
D|----/10----5----8----3-----------------------------------------------------|
A|-----x-----x----x----x-----------------------------------------------------|
D|----/10----5----8----3-----------------------------------------------------|

Verse x2
Pre-chorus x2

2nd Chorus (same as first but do this progression every other time)
D|---------------------------------------------------------------------------|
A|----/10----5----8----12----------------------------------------------------|
G|----/9-----3----7----10----------------------------------------------------|
D|----/10----5----8----12----------------------------------------------------|
A|-----x-----x----x----x-----------------------------------------------------|
D|----/10----5----8----12----------------------------------------------------|

Bridge
D|-------------------------3h0-----------------------------------------------| x2
A|----------3p0----0~----------------3---------------------------------------|
G|-------------------3~--------3~----2---------------------------------------|
D|-----5-5------5~------5~-------5~--3-x8------------------------------------|
A|-----x-x---------------------------x---------------------------------------|
D|-----5-5---------------------------3---------------------------------------|

Chorus x2
Outro is same as verse

Enjoy!



************************************

| /   slide up
| \   slide down
| h   hammer-on
| p   pull-off
| ~   vibrato
| +   harmonic
| x   Mute note
| b   Bend
| pb  Pre-bend
| br  Bend release
| pbr Pre-bend release
| brb Bend release bend

************************************
Tap to rate this tab
 
# A B C D E F G H I J K L M N O P Q R S T U V W X Y Z