Song name
# A B C D E F G H I J K L M N O P Q R S T U V W X Y Z

Biffy Clyro - Black Chandelier tab

This is my first tab, so please forgive the poor formatting.

This is not 100% correct, but it sounds great and should tide over any Biffy fans.

I haven't got the time to put down the exact timings, however for the most part they are 
not complicated and I have tried to elaborate on the chorus.

Tuning:
Drop D down half a step


Intro (Play to rhythm)

D#|-------------------------------------------------------------------------|
A#|-------------------------------------------------------------------------|
F#|--9----------------------------------------------------------------------|
C#|--10---------------------------------------------------------------------|
G#|--8----------------------------------------------------------------------|
C#|-------------------------------------------------------------------------|


Verse

D#|-------------------------------------------------------------------------|
A#|-------------------------------------------------------------------------|
F#|--9----7----7----7-------------------------------------------------------|
C#|--10---10---10---10---10-------------------------------------------------|
G#|--7----0----x----x----8--------------------------------------------------|
C#|------------9----10------------------------------------------------------|

x2

D#|-------------------------------------------------------------------------|
A#|-------------------------------------------------------------------------|
F#|--12---12---12---12---12-------------------------------------------------|
C#|--10---10---10---10---10-------------------------------------------------|
G#|--7----0----x----x----8--------------------------------------------------|
C#|------------9----10------------------------------------------------------|

Repeat first part of Verse


Riff before pre-chorus

(working this out)


Pre-chorus

D#|-------------------------------------------------------------------------|
A#|-------------------------------------------------------------------------|
F#|--9----9----9----9----10---12--------------------------------------------|
C#|--10---10---10---10---10---10--------------------------------------------|
G#|--12---11---10---9----8----8---------------------------------------------|
C#|-------------------------------------------------------------------------|


Chorus

D#|-------------------------------------------------------------------------|
A#|-------------------------------------------------------------------------|
F#|--------------------------7-99-77-99-77-99-7-----------------------------|
C#|--1010----10-------1010---10101010101010101010---------------------------|
G#|--7-7-----10-x8----7-7----0-00-00-00-00-00-0-----------------------------|
C#|----------10-------------------------------------------------------------|

D#|-------------------------------------------------------------------------|
A#|-------------------------------------------------------------------------|
F#|--7-7-----10-------9-9----12-----9--10-12-10-9---------------------------|
C#|--9-9-----10-x8----1010---10-x8--10-10-10-10-10--------------------------|
G#|--1010----8--------1010---0------0--0--0--0--0---------------------------|
C#|-------------------------------------------------------------------------|


Bridge

D#|-------------------------------------------------------------------------|
A#|-------------------------------------------------------------------------|
F#|-------------------------------------------------------------------------|
C#|--0--0--12-0-0--0--0--12-0-0--0--0--12-0-0--0--0-------------------------|
G#|--0--0--12-0-0--0--0--12-0-0--0--0--12-0-0--0--0-------------------------|
C#|--0--0--12-0-0--0--0--12-0-0--0--0--12-0-0--0--0--------(12\)------------|
Tap to rate this tab
# A B C D E F G H I J K L M N O P Q R S T U V W X Y Z