Song name
# A B C D E F G H I J K L M N O P Q R S T U V W X Y Z

Biffy Clyro - A Headline tab

Dropped D

This is pretty close i reckon, please rate. There are many guitars i have combined into 1

Intro
-0-----0--------------:--0---0-0---0-0-0-0-0-0--:--0---0-0--0-0-0-0-0-----|
-0/5/6-5-0-0----------:--7h9-9-9---7-7-7-9-9-9--:--7h9-9-9--9-7-9-5-5-0-0-|
---------4-0/4/5-5-4--:-------------------------:---------------------6-4-|
--------------------2-:-------------------------:-------------------------|
--------------------2-:-------------------------:-------------------------|
--------------------2-:-------------------------:-------------------------|

Verse

-------------------------------------------|
-------------------------------------------|
-----------------------------7-------------|
-2-----2-0-2------2------2-7-7--------5-7--|
-2-----2-0-2------2------2-7-5--------5-7--|
-2-----2-0-2------2------2-7----------5-7--|

pre chorus
----------------------------------------|
----8--3--------------------------------|
-5--9--x--------------------------------|
-5--9--5--7--10-12---5--7-9--3----7-----|
-3--7--5--7--10-12---5--7-9--3----7-----|
-------5--7--10-12---5--7-9--3----7-----|

chorus
------------------------------------|
------------------------------------|
--------------------7-----5---------|
-2----------5-------7-----5---------|
-2----------5-------5-----3---------|
-2----------5-----------------------|

Outro chords
-------------------------------------|
-------------------------------------|
-------------------------------------|
-2-------4-------0-------7-----------|
-2-------4-------0-------7-----------|
-2-------4-------0-------7-----------|
Tap to rate this tab
# A B C D E F G H I J K L M N O P Q R S T U V W X Y Z