Song name
# A B C D E F G H I J K L M N O P Q R S T U V W X Y Z

Biffy Clyro - The Conversation Is tab

While there are some good tabs of this song already I thought I'd write one for just 1 guitar.

Tuning: FCGDFC
 
Intro
F|--9------9-------9/11---9----|--0------0-------2----4-----|
C|----9------9---9-------------|----0------0----------------|
G|------7------7---------------|------3------3--------------| x2
D|-----------------------------|----------------------------|
F|-----------------------------|----------------------------|
C|-----------------------------|----------------------------|


Verse (repeat as necessary)
F|--------0-----------|-------0-----------0-----|--------7----0----------0--|
C|--------------0-----|----------0-----------0--|---------------0------0----|
G|--------------------|-------------------------|---------------------------|
D|-0---0-----0-----0--|-2--2--------3--3--------|---------------------------|
F|--------------------|-------------------------|-5---5-----5------7-7------|
C|--------------------|-------------------------|---------------------------|

Pre Chorus
F|------------------------|--------------------|----------------------|
C|------------------------|--------------------|----------------------|
G|------------------------|--------------------|----------------------|
D|--0-0-10-0--10--0--10-8-|------7----7----7-5-|------3----3-----2----|
F|------------------------|--5-5---5-----5-----|--2-2---2-----4----4--|
C|------------------------|--------------------|----------------------|


F|---0----------------|
C|---0----------------|
G|---5----------------|
D|---5----------------|
F|---7----------------|
C|--------------------|


Chorus
F|----0----|----0----|----0----|----0----|----0----|----0----|
C|----0----|----0----|----0----|----0----|----0----|----0----|
G|----5----|----5----|----x----|----x----|----5----|----2----|
D|----3----|----3----|----7----|----8----|----3----|----3----|
F|----0----|----5----|----9----|----10---|----5----|----0----|
C|---------|---------|---------|---------|---------|---------|

F|---------|----------|
C|---------|----------|
G|---------|----------|
D|----12---|----------|
F|----10---|----12----|
C|---------|----10----|


Bridge
F|----------|---------|---------|---------|---------|---------|---------|
C|----------|----0----|----0----|----0----|---------|----0----|----0----|
G|--7-------|----2----|----0----|----0----|--7------|----2----|----0----|
D|--0-------|----0----|----2----|----8----|--0------|----0----|----2----|
F|--9-------|----4----|----2----|----9----|--9------|----4----|----2----|
C|--10----0-|----2----|----0----|----7----|--10---0-|----2----|----0----|


Break
F|--9------9-------9/11---9----|--0------0-------2----4----|
C|----9------9---9-------------|----0------0---------------|
G|------7------7---------------|------3------3-------------| 
D|-----------------------------|---------------------------|
F|-----------------------------|---------------------------|
C|-----------------------------|---------------------------|

F|--2------2-----2----4---7----|---------------------------|
C|----0------0-----0-----------|--4-----4------5----7------|
G|------0------0---------------|----5-5---5-5--------------| 
D|-----------------------------|---------------------------|
F|-----------------------------|---------------------------|
C|-----------------------------|---------------------------|


Outro
F|------------------------|--------------------|
C|------------------------|--------------------|
G|------------------------|--------------------|
D|--0-0-10-0--10--0--10-0-|--0-0-10-0--10------|
F|------------------------|----------------7-8-|
C|------------------------|--------------------|

F|------------------------|-------------------|--------|
C|------------------------|-------------------|--------|
G|------------------------|-------------------|--------|
D|------------------------|-------------------|--------|
F|------7-----7------7----|------7-----7------|--------|
C|--2-2----2------2----2--|--2-2----2-----0-1-|-2~-----|


Those are all the parts you need. Hope it all makes sense.
I've done a cover of this tab if you are interested:
http://www.youtube.com/watch?v=m2UiGjnFjbw&lc=taUAQEoQhg8Q16MdDMQd6Xrry3M8j4KtqVVrG48XbsU
Tap to rate this tab
 
# A B C D E F G H I J K L M N O P Q R S T U V W X Y Z