Song name
# A B C D E F G H I J K L M N O P Q R S T U V W X Y Z

Biffy Clyro - The Rain Acoustic tab

-----------------------------------------------------------------------------
                             The Rain - Biffy Clyro
----------------------------------------------------------------------------
Tabbed by: Ryan
E-mail:RHARTRIDGE@GOOGLEMAIL.COM

Tuning: Drop C#

INTRO
D#|-----------------------------------------------------|
A#|10----8-----8-----8----------10----8-----8-----8-----|
F#|---0-----0-----0-----0----------0-----0-----0-----0--|
C#|--------------------------x3-------------------------|
G#|6-6-6-7-7-7-7-7-7-7-7-7------9-9-9-7-7-7-7-7-7-7-7-7-|
C#|-----------------------------------------------------|

VERSE
|---------------------------------------------------------------------------|
|-0-----5-----5-----5-----7-----8-----8-----8--------------8-----8-----8--7-|
|-4--4-----0-----0-----0-----0-----0-----0-----0--7--7--5-----5-----5-------|
|---------------------------------------------------------------------------|
|-------3-3-3-3-3-3-3-3-3-6-6-6-7-7-7-7-7-7-7-7-7-------------------------6-|
|-5-5-5-------------------------------------------9-9-9-7-7-7-7-7-7-7-7-7---|

|-----------------------|
|-----8-----8-----8-----|
|--0-----0-----0-----0--|
|-----------------------|
|-6-6-7-7-7-7-7-7-7-7-7-|
|-----------------------|

CHORUS
|---------------------------------------------------------------------------|
|-10--------10-----------0-----0--0-----0-----0-----0-----10------12--------|
|-11---11--------11---5-----5--------2-----2-----2-----2--11---11----11---5-|
|------------------------------------------------------------0----------0---|
|---------------------------------------------------------------------------|
|-12-12--12-12-12--12-7-7-7-7-7-7-2-2-2-2-2-2-2-2-2-2-2-2-12--------------7-|

|-----------------------------------|
|--0-----0--5-----5-----5-----5-----|
|-----5--------0-----0-----0-----0--|
|-----------------------------------|
|-----------3-3-3-3-3-3-3-3-3-3-3-3-|
|-7-7-7-7-7-------------------------|


Fairly accurate. Beautiful Song.
Tap to rate this tab
# A B C D E F G H I J K L M N O P Q R S T U V W X Y Z