Song name
# A B C D E F G H I J K L M N O P Q R S T U V W X Y Z

Biffy Clyro - Pocket tab

-------------------------------------------------------------------------------
                             Pocket - Biffy Clyro
-------------------------------------------------------------------------------

Tuning:DADGBE

I think all of this album is in drop C# or something.
I can't seem to get the nice open chords that Simon does just using drop D but here's 
what I got...



Intro

e|---------0-----------------------------------------------------------------|
B|5--3--3--0-----------------------------------------------------------------|
G|x--2--2--1-----------------------------------------------------------------|
D|7--0--4--2-----------------------------------------------------------------|   x8
A|7--0--4--2-----------------------------------------------------------------|
D|7--------2-----------------------------------------------------------------|


e|---------0-----------------------------------------------------------------|
B|3--3--2--0-----------------------------------------------------------------|
G|2--4--X--1-----------------------------------------------------------------|
D|0--4--4--2-----------------------------------------------------------------|   x1
A|0--2--4--2-----------------------------------------------------------------|
D|------4--2-----------------------------------------------------------------|

e|---------0-----------------------------------------------------------------|
B|5--3--3--0-----------------------------------------------------------------|
G|x--2--2--1-----------------------------------------------------------------|
D|7--0--4--2-----------------------------------------------------------------|   x8
A|7--0--4--2-----------------------------------------------------------------|
D|7--------2-----------------------------------------------------------------|



Pre chorus (strum these chords)

e|---------0-----------------------------------------------------------------|
B|3--3--2--0-----------------------------------------------------------------|
G|2--4--X--1-----------------------------------------------------------------|
D|0--4--4--2-----------------------------------------------------------------|
A|0--2--4--2-----------------------------------------------------------------|
D|------4--2-----------------------------------------------------------------|

Chorus

e|---------------------------------------------------------------------------|
B|3-3-3-3---3----------------------------3-3-3-3---3-------------------------|
G|2-2-2-2---2--9-9-9-9---9--6-6-6-6---6--2-2-2-2---2-------------------------|
D|0-0-0-0---0--7-7-7-7---7--4-4-4-4---4--0-0-0-0---0-------------------------|
A|0-0-0-0---0--7-7-7-7---7--4-4-4-4---4--0-0-0-0---0-------------------------|
D|0-0-0-0---0--7-7-7-7---7--4-4-4-4---4--0-0-0-0---0-------------------------|

e|---------------------------------------------------------------------------|
B|3-3-3-3---3----------------------------0-0-0-0---0-------------------------|
G|2-2-2-2---2--9-9-9-9---9--6-6-6-6---6--1-1-1-1---1-------------------------|
D|0-0-0-0---0--7-7-7-7---7--4-4-4-4---4--2-2-2-2---2-------------------------|
A|0-0-0-0---0--7-7-7-7---7--4-4-4-4---4--2-2-2-2---2-------------------------|
D|0-0-0-0---0--7-7-7-7---7--4-4-4-4---4--2-2-2-2---2-------------------------|

e|---------------------------------------------------------------------------|
B|3-3-3-3---3----------------------------3-3-3-3---3--3-3-3-3----------------|
G|2-2-2-2---2--9-9-9-9---9--6-6-6-6---6--2-2-2-2---2--4-4-4-4-7-7-7-9-9-9-9-9|
D|0-0-0-0---0--7-7-7-7---7--4-4-4-4---4--0-0-0-0---0--4-4-4-4-7-7-7-7-7-7-7-7|
A|0-0-0-0---0--7-7-7-7---7--4-4-4-4---4--0-0-0-0---0--2-2-2-2-5-5-5-7-7-7-7-7|
D|0-0-0-0---0--7-7-7-7---7--4-4-4-4---4--0-0-0-0---0----------------7-7-7-7-7|

Solo

Guitar 1

e|---------------------------------------------------------------------------|
B|-------------------------------------10-9-10-12-12-10-9-10\----------------|
G|---9br---7-6-7-----------------9brb----------------------------------------|
D|-7-------------9-9h11p9--7---7---------------------------------------------|
A|---------------------------------------------------------------------------|
D|---------------------------------------------------------------------------|

e|------------------------------------------17-16----------------------------|
B|-------10-9-10-12-12-10-9-10----14/17\14--------12b--12b--12-10------------|
G|-7/9-----------------------------------------------------------------------|
D|---------------------------------------------------------------------------|
A|---------------------------------------------------------------------------|
D|---------------------------------------------------------------------------|


Guitar 2 - play this for the whole solo

e|---------------------------------------------------------------------------|
B|---------------------------------------------------------------------------|
G|---------------------------------------------------------------------------|
D|7-7---0-----4-4---2--------------------------------------------------------|
A|7-7---0-----4-4---2--------------------------------------------------------|
D|7-7---0-----4-4---2--------------------------------------------------------|



Cause in my heart I hesitate...

e|---------------------------------------------------------------------------|
B|---------------------------------------------------------------------------|
G|---------------------------------------------------------------------------|
D|4444444444444444-2222222222222222------------------------------------------|
A|4444444444444444-2222222222222222------------------------------------------|
D|4444444444444444-2222222222222222------------------------------------------|

Chorus again

Outro is the same as the solo for guitar 2. The other guitar is playing something but I 
cba to work it out.


************************************

| /   slide up
| \   slide down
| h   hammer-on
| p   pull-off
| ~   vibrato
| +   harmonic
| x   Mute note
| b   Bend
| pb  Pre-bend
| br  Bend release
| pbr Pre-bend release
| brb Bend release bend

************************************
Tap to rate this tab
# A B C D E F G H I J K L M N O P Q R S T U V W X Y Z