Song name
# A B C D E F G H I J K L M N O P Q R S T U V W X Y Z

Biffy Clyro - Victory Over The Sun tab

Artist  :       Biffy Clyro
Song    :       Victory over the sun
Album   :       Opposites


Tabbed by Dave Curtis
Any questions/corrections to Sonicboombox@Yahoo.com

Key
~ Let Ring
\Slide up
/Slide down
b Bend
x Mute string


Tuning drop D

Intro
E----------------------------------|
B---------4-----6------------4--6--|
G-----6------6-----------6h8----6--|
D--8---------------4h6/8-----------|
A----------------------------------|
d----------------------------------| x4

Verse 1
E--------------------------------------|
B---------4-----6------------4------6--|
G-----6------6-----------6h8----6-8----|
D--8---------------4h6/8---------------|
A--------------------------------------|
d--------------------------------------|
Trees will speak before you listen
we can barely stand each other
Coz Id wait...
Would You...
Bleeding tears is the least of our...
families gone, blistered feelings
Id die...
Would you...



E----------------------------------|
B---------4-----6------------4-----|
G-----6------6-----------6h8----6--|
D--8---------------4h6/8-----------|
A----------------------------------|
d----------------------------------|
Oh my God noone knows that
Its not right, no its not fair
...anywhere for you
...wait for me?
...problems here, We can moan our
All we have's diseased organs
...anytime for you
...die for me?


Break
E----------------------------------|
B---------4-----6------------4--6--|
G-----6------6-----------6h8----6--|
D--8---------------4h6/8-----------|
A----------------------------------|
d----------------------------------| x2


Verse 2
E--------------------------------------|
B---------4-----6------------4------6--|
G-----6------6-----------6h8----6-8----|
D--8---------------4h6/8---------------|
A--------------------------------------|
d--------------------------------------|

Bleeding tears is the least of our...
families gone, blistered feelings
Id die...
Would you...


E----------------------------------|
B---------4-----6------------4-----|
G-----6------6-----------6h8----6--|
D--8---------------4h6/8-----------|
A----------------------------------|
d----------------------------------|
...problems here, We can moan our
All we have's diseased organs
...anytime for you
...die for me?


Then this sexy little riff
E-----------------------------|
B----------6------------6-7-6-|
G-----6-8-----------6-8-------|
D--/8------------/8-----------|
A-----------------------------|
d-----------------------------| X3

Then                                                                  d u d
E----------------------------------------------------------------------------|
B----------6------------6-7-6~----------------------------------------6-6-6\-|
G-----6-8-----------6-8-----------------------------------------------6-6-6\-|
D--/8------------/8----------------------------------------------------------|
A----------------------------------------------------------------------------|
d----------------------------------------------------------------------------|
                                Keep diggin for the rest of your days


E------------------------------------------------------------------------6~--------------|
B-----------------------------------------------------------------------------6~---------|
G-------------------------------------6~----------------------------------------------6~-|
D-------------------------------------4~-------------------------------------------------|
A-------------------------------------4~-------------------------------------------------|
d-------------------------------------4~-------------------------------------------------|
Say something please its time to pay, Smoke crack for me, retract for me      At this 
time Id let you spit in my face


E----------------------------------------------------------|
B----------6------------6---------------6------------6-7-6-|
G-----6-8-----------6-8------------6-8-----------6-8-------|
D--/8------------/8-------------/8------------/8-----------|
A----------------------------------------------------------|
d----------------------------------------------------------|
I can only make you see the moon you can touch it but thats up to you


E--------------------------------------------------------------------------------|
B----------6------------6---------------6------------6-0-6b-6b-6b-6b-6b-6b-6b-6b-|
G-----6-8-----------6-8------------6-8-----------6-8-----------------------------|
D--/8------------/8-------------/8------------/8---------------------------------|
A--------------------------------------------------------------------------------|
d--------------------------------------------------------------------------------|
This is happening because of you, you stay special brother you stay true

Chorus
E----------------------------------------------------|
B----------------------------------------------------|
G-3--5--6--5--3--8--8--8--8--8--8--8--8--8--8--8--8--|
D-3--5--6--5--3--6--6--6--x--8--8--8--8--6--6--6--6--|
A-1--3--4--3--1--6--6--6--x--6--6--6--6--6--6--6--6--|
d----------------6--6--6--x--------------6--6--6--6--|


E--------------------------------------------------------|
B--------------------------------------------------------|
G-3--5--6--5--3--8--8--8--8--8--8--8--8--11--11--11--11--|
D-3--5--6--5--3--6--6--6--x--8--8--8--8--11--11--11--11--|
A-1--3--4--3--1--6--6--6--x--6--6--6--6--9---9---9---9---|
d----------------6--6--6--x------------------------------|


E----------------------------------------------------|
B----------------------------------------------------|
G-3--5--6--5--3--8--8--8--8--8--8--8--8--8--8--8--8--|
D-3--5--6--5--3--6--6--6--x--8--8--8--8--6--6--6--6--|
A-1--3--4--3--1--6--6--6--x--6--6--6--6--6--6--6--6--|
d----------------6--6--6--x--------------6--6--6--6--|


E--------------------------------------------------------|
B--------------------------------------------------------|
G-3--5--6--5--3--8--8--8--8--8--8--8--8--11--11--11--11--|
D-3--5--6--5--3--6--6--6--x--8--8--8--8--11--11--11--11--|
A-1--3--4--3--1--6--6--6--x--6--6--6--6--9---9---9---9---|
d----------------6--6--6--x------------------------------|

Its pretty much a repeat of those riffs for the whole rest of the song except for in the 
sexy bit the second time around he does some slides from

B--6/11\6--
                                                                        instead of the

B--6-7-6---

Good luck giz an email if ya want any more or have corrections
Tap to rate this tab
# A B C D E F G H I J K L M N O P Q R S T U V W X Y Z