Song name
# A B C D E F G H I J K L M N O P Q R S T U V W X Y Z

Biffy Clyro - Spanish Radio tab

BIFFY CLYRO  - SPANISH RADIO
Transcribed by Rob2.0

N.B. Whole song is in 5/4 time.

Drop Db Tuning (DbAbDbGbBbEb)

Intro (after trumpet riff):
   Gb                    Ab add9

    E E E E+H. +W        E E E E+H. +W
Eb|-----------|--------|-----------|--------|
Bb|-------0---|-(0)----|-------0---|-(0)----|
Gb|-----4-----|--------|-----6-----|--------|
Db|---5-------|--------|---7-------|--------|
Ab|-----------|--------|-----------|--------|
Db|-5---------|--------|-7---------|--------|

Verse 1:
   Bbm                  Gb
    E E E E+H. +W        E E E Q  E E E Q    E E E Q  E E E Q
eb|-----------|--------|-------------------|-------------------|
Bb|-------0---|-(0)----|-------0-----------|-------0-----------|
Gb|-----7-----|--------|-----4------4\2-0--|-----4------4\2-0--|
Db|---9-------|--------|---5------5--------|---5------5--------|
Ab|-----------|--------|-------------------|-------------------|
Db|-9---------|--------|-5-----------------|-5-----------------|

   Db                   Ab add9
    E E E E+H. +W        E E E Q  E E E Q    E E E Q  E E E Q
eb|-----------|--------|-------------------|-------------------|
Bb|-----------|--------|-------0-----------|-------0-----------|
Gb|-------2---|-(2)----|-----6------6\4----|-----6------6\4----|
Db|-----4-----|--------|---7------7-----7--|---7------7-----7--|
Ab|---0-------|--------|-------------------|-------------------|
Db|-0---------|--------|-7-----------------|-7-----------------|

   Bbm                    Gb                    Db
      E E E Q  E E E Q      E E E Q  E E E Q      E E E Q  E E E Q
eb||--------------------||--------------------||---------------------||
Bb||o-----3-0--2-3p2-0-o||o-------0----------o||o-------------------o||
Gb||--------------------||------4----2-4p2-0--||--------2--0-2p0-----||
Db||----4---------------||----5---------------||------4----------4---||
Ab||o-2----------------o||o------------------o||o---0---------------o||
Db||--------------------||--5-----------------||--0------------------||
 (These are repeat signs)

    Ab add9
      E E E Q  E E E Q
eb||----------------------||
Bb||o-------0------------o||
Gb||------6------6\4------||
Db||----7------7-----7----||
Ab||o--------------------o||
Db||--7-------------------||


CHORUS

    Db                    Ebm                   Bbm
      E E E Q  E E E Q      E E E Q  E E E Q      E E E Q  E E E Q
eb||--------------------||-----------0--------||--------------------||
Bb||o-------7----7p5---o||o-------8----8p7---o||o-------0--2-3p2-0-o||
Gb||------7----------7--||------9----------9--||------4-------------||
Db||----7---------------||----9---------------||----4---------------||
Ab||o-5--------5-------o||o-7----------------o||o-2----------------o||
Db||--------------------||--------------------||--------------------||

    Ab
      E E E Q  E E E Q
eb||--------------------||
Bb||o-------2--0-2p0---o||
Gb||------2----------2--||
Db||----2---------------||
Ab||o-0----------------o||
Db||--------------------||

Verse 2:

   Bbm                    Gb                    Db
      E E E Q  E E E Q      E E E Q  E E E Q [E]      E E E Q  E E E Q  
eb||--------------------||------------------------||---------------------||
Bb||o-----3-0--2-3p2-0-o||o-------0--------------o||o-------------------o||
Gb||--------------------||------4----2-4p2-0[h2]--||--------2--0-2p0-----||
Db||----4---------------||----5-------------------||------4----------4---||
Ab||o-2----------------o||o----------------------o||o---0---------------o||
Db||--------------------||--5---------------------||--0------------------||
                                      [2nd time only]

    Ab add9
      E E E Q  E E E Q
eb||----------------------||
Bb||o-------0------------o||
Gb||------6------6\4------||
Db||----7------7-----7----||
Ab||o--------------------o||
Db||--7-------------------||

   Bbm                    Gb                    Db
      E E E Q  E E E Q      E E E Q  E E E Q [E]      E E E Q  E E E Q
eb||--------------------||------------------------||---------------------||
Bb||o-----3-0--2-3p2-0-o||o-------0--------------o||o-------------------o||
Gb||--------------------||------4----2-4p2-0[h2]--||--------2--0-2p0-----||
Db||----4---------------||----5-------------------||------4----------4---||
Ab||o-2----------------o||o----------------------o||o---0---------------o||
Db||--------------------||--5---------------------||--0------------------||

    Ab add9
      E E E Q  E E E Q
eb||----------------------||
Bb||o-------0------------o||
Gb||------6------6\4------||
Db||----7------7-----7----||
Ab||o--------------------o||
Db||--7-------------------||

CHORUS 2

    Db                    Ebm                    Bbm
      E E E Q  E E E Q      E E E Q  E E E Q      E E E Q  E E E Q
eb||--------------------||-----------0--------||--------------------||
Bb||o-------7----7p5---o||o-------8----8p7---o||o-------0--2-3p2-0-o||
Gb||------7----------7--||------9----------9--||------4-------------||
Db||----7---------------||----9---------------||----4---------------||
Ab||o-5--------5-------o||o-7----------------o||o-2----------------o||
Db||--------------------||--------------------||--------------------||

    Ab
      E E E Q  E E E Q
eb||--------------------||
Bb||o-------2--0-2p0---o||
Gb||------2----------2--||
Db||----2---------------||
Ab||o-0----------------o||
Db||--------------------||

    Db                    Ebm                   Bbm
      E E E Q  E E E Q      E E E Q  E E E Q      E E E Q  E E E Q
eb||--------------------||-----------0--------||--------------------||
Bb||o-------7----7p5---o||o-------8----8p7---o||o-------0--2-3p2-0-o||
Gb||------7----------7--||------9----------9--||------4-------------||
Db||----7---------------||----9---------------||----4---------------||
Ab||o-5--------5-------o||o-7----------------o||o-2----------------o||
Db||--------------------||--------------------||--------------------||

    Ab
      E E E Q  E E E Q
eb||--------------------||
Bb||o-------2--0-2p0---o||
Gb||------2----------2--||
Db||----2---------------||
Ab||o-0----------------o||
Db||--------------------||

BRIDGE (repeat whole section)
   Ebm               Gb              Bbm              Ebm
      Q  E Q  E Q Q   Q  E Q  E Q Q   Q  E Q  E Q Q   Q  E Q  E Q Q
Eb||-------0--0---0-|------0--0---0-|------0--0---0-|---------------|
Bb||o------0--0---0-|------0--0---0-|------0--0---0-|------8--8---8-|
Gb||-------0--0---0-|------4--4---4-|------7--7---7-|------9--9---9-|
Db||--2--2------2---|-5--5-5--5-5-5-|-9--9------9---|------9--9---9-|
Ab||o---------------|---------------|---------------|-7--7------7---|
Db||--2--2------2---|-5--5------5---|-9--9------9---|---------------|

   Db              Ebm           
    Q  E Q  E Q Q   Q  E Q  E Q Q   Q  E Q  E Q Q  
eb|------0--0---0-|---------------|---------------|
Bb|------7--7---7-|------8--8---8-|------8--8---8-|
Gb|------7--7---7-|------9--9---9-|------9--9---9-|
Db|------7--7---7-|------9--9---9-|------9--9---9-|
Ab|-5--5------5---|-7--7------7---|-7--7------7---|
Db|-0--0------0---|---------------|---------------|


   Abm             Cb              Ebm              Fb
    Q  E Q  E Q Q   Q  E Q  E Q Q   Q  E Q  E Q Q   Q  E Q  E Q Q
eb|------0--0---0-|------0--0---0-|------0--0---0-|------------------|
Bb|------1--1---1-|------1--1---1-|------8--8---8-|------10--10---10-|
Gb|------2--2---2-|------0--0---0-|------9--9---9-|------10--10---10-|
Db|------2--2---2-|------2--2---2-|------9--9---9-|------10--10---10-|
Ab|-0--0------0---|-3--3------3---|-7--7------7---|-8--8--------8----|
Db|---------------|---------------|---------------|------------------|

   Gb              Abm             
    Q  E Q  E Q Q   Q  E Q  E Q Q   Q  E Q  E Q Q
eb|---------------|---------------|----------------||
Bb|------8--8---8-|------1--1---1-|------1--1---1-o||
Gb|------7--7---7-|------2--2---2-|------2--2---2--||
Db|------5--5---5-|------2--2---2-|------2--2---2--||
Ab|-5--5------5---|-0--0------0---|-0--0------0---o||
Db|-5--5------5---|---------------|----------------||


CHORUS 3

    Db                    Ebm                   Bbm
      E E E Q  E E E Q      E E E Q  E E E Q      E E E Q  E E E Q
eb||--------------------||-----------0--------||--------------------||
Bb||o-------7----7p5---o||o-------8----8p7---o||o-------0--2-3p2-0-o||
Gb||------7----------7--||------9----------9--||------4-------------||
Db||----7---------------||----9---------------||----4---------------||
Ab||o-5--------5-------o||o-7----------------o||o-2----------------o||
Db||--------------------||--------------------||--------------------||

    Ab
      E E E Q  E E E Q
eb||--------------------||
Bb||o-------2--0-2p0---o||
Gb||------2----------2--||
Db||----2---------------||
Ab||o-0----------------o||
Db||--------------------||

    Db                    Ebm                    Bbm
      E E E Q  E E E Q      E E E Q  E E E Q      E E E Q  E E E Q
eb||--------------------||-----------0--------||--------------------||
Bb||o-------7----7p5---o||o-------8----8p7---o||o-------0--2-3p2-0-o||
Gb||------7----------7--||------9----------9--||------4-------------||
Db||----7---------------||----9---------------||----4---------------||
Ab||o-5--------5-------o||o-7----------------o||o-2----------------o||
Db||--------------------||--------------------||--------------------||

    Ab
      E E E Q  E E E Q
eb||--------------------||
Bb||o-------2--0-2p0---o||
Gb||------2----------2--||
Db||----2---------------||
Ab||o-0----------------o||
Db||--------------------||
OUTRO
  Bbm
    W  +Q  +W       W   +Q  +W        E E E E Q E E E E
eb|-2----|-(2)----|-------|-------||---------------------||
Bb|-3----|-(3)----|-------|-------||o-------------------o||
Gb|-4----|-(4)----|-------|-------||--4-4-4-4---4-4-4-4--||
Db|-4----|-(4)----|-------|-------||--4-4-4-4---4-4-4-4--||
Ab|-2----|-(2)----|-{5}---|-(5)---||o-2-2-2-2---2-2-2-2-o||
Db|------|--------|-{5}---|-(5)---||---------------------||

   Db5                     Ab5
      E E E E Q E E E E      E  E  E  E  Q E  E  E  E
eb||---------------------||-----------------------------||
Bb||o-------------------o||o-10-10-10-10---10-10-10-10-o||
Gb||--7-7-7-7---7-7-7-7--||--9--9--9--9----9--9--9--9---||
Db||--7-7-7-7---7-7-7-7--||--7--7--7--7----7--7--7--7---||
Ab||o-5-5-5-5---5-5-5-5-o||o-7--7--7--7----7--7--7--7--o||
Db||--0-0-0-0---0-0-0-0--||--7--7--7--7----7--7--7--7---||

   Eb5                     Bb5      
      E E E E Q E E E E      E E E E Q E E E E
eb||---------------------||---------------------||
Bb||o-------------------o||o-------------------o||
Gb||--9-9-9-9---9-9-9-9--||--4-4-4-4---4-4-4-4--||
Db||--9-9-9-9---9-9-9-9--||--4-4-4-4---4-4-4-4--||
Ab||o-7-7-7-7---7-7-7-7-o||o-2-2-2-2---2-2-2-2-o||
Db||---------------------||---------------------||

   Db5                     Ab5
      E E E E Q E E E E      E  E  E  E Q  E  E  E  E
eb||---------------------||-----------------------------||
Bb||o-------------------o||o-10-10-10-10---10-10-10-10-o||
Gb||--7-7-7-7---7-7-7-7--||--9--9--9--9----9--9--9--9---||
Db||--7-7-7-7---7-7-7-7--||--7--7--7--7----7--7--7--7---||
Ab||o-5-5-5-5---5-5-5-5-o||o-7--7--7--7----7--7--7--7--o||
Db||--0-0-0-0---0-0-0-0--||--7--7--7--7----7--7--7--7---||

   Eb5                     Bb       
      E E E E Q E E E E      E  E  E  E Q  E  E  E  E
eb||---------------------||-----------------------------||
Bb||o-------------------o||o-16-16-16-16---16-16-16-16-o||
Gb||--9-9-9-9---9-9-9-9--||--16-16-16-16---16-16-16-16--||
Db||--9-9-9-9---9-9-9-9--||--16-16-16-16---16-16-16-16--||
Ab||o-7-7-7-7---7-7-7-7-o||o-14-14-14-14---14-14-14-14-o||
Db||---------------------||-----------------------------||

Legend: 
h = hammer
p = pulloff
/ or \ = slide
{n} = natural harmonic at fret n
(n) = note is held

||o and o|| indicate the start and end of a repeated section.
[n] indicates a note to be played on the SECOND REPEAT ONLY.

W = Whole note
H = Half note
Q = Quarter note
E = Eighth note
+ denotes a tie

LYRICS:
I'm going to walk to the water's edge
Refuse to be cleansed but struggle in
Your crown don't fit so vacate the throne
And off with your head, I need a shoulder to cry on

I got a heart, I got a reason to love you all,
every single person
It's not at all our conversation,
I'm looking for total dislocation
I always wake to the sound of your voice
And I am floating on an ominous cloud
This dark land looming over the hill
Maintain a holy stance and protect your children

I got a heart, I got a reason to love you all,
every single person
It's not at all our conversation,
I'm looking for total dislocation
I got a tree, it's time to cut it to its knees,
don't want to rush it
We got to please, we have to glisten
as I remain in splendid isolation

I got a heart, I got a reason to love you all,
every single person
It's not at all our conversation,
I'm looking for total dislocation
I got a tree, it's time to cut it to its knees,
don't want to rush it
We got to please, we have to glisten
as I remain in splendid isolation

Hey, you can be lost at the same time as being found
Hey, you can be lost at the same time as being found 
Tap to rate this tab
# A B C D E F G H I J K L M N O P Q R S T U V W X Y Z