Song name
# A B C D E F G H I J K L M N O P Q R S T U V W X Y Z

Biffy Clyro - Questions And Answers tab

QUESTIONS AND ANSWERS-BIFFY CLYRO-THE VERTIGO OF BLISS
Tabbed by:Frusciante_50
Drop D Tuning

Noticed there was some poor tabs for this, so had a go myself

Intro:

e|---|
B|---|
G|---|
D|-0-|
A|-0-|
D|-0-|

Verse riff:

e|-------------------------------------------------------------------------|
B|-------------------------------------------------------------------------|
G|-------------------------------------------------------------------------|
D|-------------------9-9-9---7-7-7-7-7-7-----------------------9-9-9-------|
A|-7-7-7-7---9-9-9---9-9-9---7-7-7-7-7-7---7-7-7-7---9-9-9-9---9-9-9-------|
D|-0-0-0-0---0-0-0---9-9-9---7-7-7-7-7-7---0-0-0-0---0-0-0-0---9-9-9-------|

e|---------|
B|---------|
G|---------|
D|-7-7-7-7-|
A|-7-7-7-7-|
D|-7-7-7-7-|

Bridge:

e|-------------------------------------------------------------------------|
B|------7-7--------7-7--------7-7--------7-7-------------------------------|
G|------7-7--------7-7--------7-7--------7-7-------------------------------|
D|-5-5--------5-5--------5-5--------5-5------------------------------------|
A|-5-5--------5-5--------5-5--------5-5------------------------------------|
D|-5-5--------5-5--------5-5--------5-5------------------------------------|

This is played throughout the verse over the top of the verse riff

e|-------------------------------------------------------------------------|
B|-------------------------------------------------------------------------|
G|-9-9-9-9---11-11-11-11---11-11-11-11-11-11-11----------------------------|
D|-x-x-x-x----x--x--x--x----x--x--x--x--x--x--x----------------------------|
A|-7-7-7-7----9--9--9--9----9--9--9--9--9--9--9----------------------------|
D|-------------------------------------------------------------------------|

Then continue playing verse riff

There is another bridge, before the chorus

Chorus:

e|-------------------------------------------------------------------------|
B|-------------------------------------------------------------------------|
G|-7-7-7-7-7-7-7---6-6-6-6-6-6-6---9-9-9--11---6-6-6-6-6-6-6---------------|
D|-7-7-7-7-7-7-7---5-5-5-5-5-5-5---9-9-9---9---5-5-5-5-5-5-5---------------|
A|-5-5-5-5-5-5-5---5-5-5-5-5-5-5---9-9-9---9---5-5-5-5-5-5-5---------------|
D|-0-0-0-0-0-0-0---5-5-5-5-5-5-5---9-9-9---9---5-5-5-5-5-5-5---------------|

After chorus:

e|----------------------------------------------------------------------|
B|----------------------------------------------------------------------|
G|----------------------------------------------------------------------|
D|-11--9----11/14--14---------------------------------------------------|
A|--9--9-----9/12--12---------------------------------------------------|
D|--9--9-----0------0---------------------------------------------------|x4

e|----------------------------------|
B|----------------------------------|
G|-----9-----9----------9-----9-----|
D|---7-----7-----7----7-----7-----7-|
A|-7-----7-----7----5-----5-----5---|
D|----------------------------------|x3

e|----------------------------------------------------------------------|
B|-----7-7-----7-7------------------------------------------------------|
G|-----7-7-----7-7----9-9-9-9-9-9---7-7-7-7-7-7-------------------------|
D|-5-5-----5-5--------9-9-9-9-9-9---7-7-7-7-7-7-------------------------|
A|-5-5-----5-5--------7-7-7-7-7-7---5-5-5-5-5-5-------------------------|
D|-5-5-----5-5----------------------------------------------------------|x2

Then play chorus with this on the end:

e|-------------------------------------------------------------------------|
B|-------------------------------------------------------------------------|
G|-12------11-------14-------11--------------------------------------------|
D|--x-(x8)--x-(x8)---x-(x8)---x-(x8)---------------------------------------|
A|-10-------9-------12--------9--------------------------------------------|
D|-------------------------------------------------------------------------|

Solo:

e|-------------------------------------------------------------------------|
B|-----------7-7-----7-7-----7-7------------------------------14-----------|
G|-9--11-----7-7-----7-7-----7-7-----------------------14h16----14p12------|
D|-9---9---7-------5------5-------14--16---14h16--16-----------------------|
A|-9---9---7-------5------5------------------------------------------------|
D|-9---9---7-------5------5------------------------------------------------|

e|-------------------------------------------------------------------------|
B|---------------14--------------------------------------------------------|
G|--------14h16-----14p12--------------------------------------------------|
D|-12h14-------------------12h14p12----------------------------------------|
A|-------------------------------------------------------------------------|
D|-------------------------------------------------------------------------|

Then play chorus again

Outro:

e|-------------------------------------------------------------------------|
B|-------------------------------------------------------------------------|
G|-12------11-------14-------11--------------------------------------------|
D|--x-(x8)--x-(x8)---x-(x8)---x-(x8)---------------------------------------|
A|-10-------9-------12--------9--------------------------------------------|
D|-------------------------------------------------------------------------|





Tap to rate this tab
# A B C D E F G H I J K L M N O P Q R S T U V W X Y Z